  0
SECTION
  2
HEADER
  9
$ACADVER
  1
AC1015
  9
$ACADMAINTVER
 70
     6
  9
$DWGCODEPAGE
  3
ANSI_932
  9
$INSBASE
 10
0.0
 20
0.0
 30
0.0
  9
$EXTMIN
 10
6.040970547172491
 20
5.280762213841967
 30
-0.0015258207003583
  9
$EXTMAX
 10
406.0682838995338
 20
300.0325018144591
 30
0.0000000349246037
  9
$LIMMIN
 10
0.0
 20
0.0
  9
$LIMMAX
 10
297.0
 20
210.0
  9
$ORTHOMODE
 70
     0
  9
$REGENMODE
 70
     1
  9
$FILLMODE
 70
     1
  9
$QTEXTMODE
 70
     0
  9
$MIRRTEXT
 70
     1
  9
$LTSCALE
 40
0.25
  9
$ATTMODE
 70
     1
  9
$TEXTSIZE
 40
0.2
  9
$TRACEWID
 40
0.05
  9
$TEXTSTYLE
  7
STANDARD
  9
$CLAYER
  8
0
  9
$CELTYPE
  6
ByLayer
  9
$CECOLOR
 62
   256
  9
$CELTSCALE
 40
1.0
  9
$DISPSILH
 70
     0
  9
$DIMSCALE
 40
1.0
  9
$DIMASZ
 40
1.0
  9
$DIMEXO
 40
0.0
  9
$DIMDLI
 40
0.5
  9
$DIMRND
 40
0.0
  9
$DIMDLE
 40
0.0
  9
$DIMEXE
 40
0.0
  9
$DIMTP
 40
0.0
  9
$DIMTM
 40
0.0
  9
$DIMTXT
 40
0.18
  9
$DIMCEN
 40
0.0
  9
$DIMTSZ
 40
0.0
  9
$DIMTOL
 70
     0
  9
$DIMLIM
 70
     0
  9
$DIMTIH
 70
     1
  9
$DIMTOH
 70
     1
  9
$DIMSE1
 70
     0
  9
$DIMSE2
 70
     0
  9
$DIMTAD
 70
     0
  9
$DIMZIN
 70
     0
  9
$DIMBLK
  1

  9
$DIMASO
 70
     0
  9
$DIMSHO
 70
     0
  9
$DIMPOST
  1

  9
$DIMAPOST
  1

  9
$DIMALT
 70
     0
  9
$DIMALTD
 70
     0
  9
$DIMALTF
 40
25.4
  9
$DIMLFAC
 40
1.0
  9
$DIMTOFL
 70
     0
  9
$DIMTVP
 40
0.0
  9
$DIMTIX
 70
     0
  9
$DIMSOXD
 70
     0
  9
$DIMSAH
 70
     0
  9
$DIMBLK1
  1

  9
$DIMBLK2
  1

  9
$DIMSTYLE
  2
Standard
  9
$DIMCLRD
 70
     0
  9
$DIMCLRE
 70
     0
  9
$DIMCLRT
 70
     0
  9
$DIMTFAC
 40
1.0
  9
$DIMGAP
 40
0.09
  9
$DIMJUST
 70
     0
  9
$DIMSD1
 70
     0
  9
$DIMSD2
 70
     0
  9
$DIMTOLJ
 70
     1
  9
$DIMTZIN
 70
     0
  9
$DIMALTZ
 70
     0
  9
$DIMALTTZ
 70
     0
  9
$DIMUPT
 70
     0
  9
$DIMDEC
 70
     4
  9
$DIMTDEC
 70
     4
  9
$DIMALTU
 70
     2
  9
$DIMALTTD
 70
     2
  9
$DIMTXSTY
  7
STANDARD
  9
$DIMAUNIT
 70
     0
  9
$DIMADEC
 70
     0
  9
$DIMALTRND
 40
0.0
  9
$DIMAZIN
 70
     0
  9
$DIMDSEP
 70
    46
  9
$DIMATFIT
 70
     3
  9
$DIMFRAC
 70
     0
  9
$DIMLDRBLK
  1

  9
$DIMLUNIT
 70
     2
  9
$DIMLWD
 70
    -2
  9
$DIMLWE
 70
    -2
  9
$DIMTMOVE
 70
     0
  9
$LUNITS
 70
     2
  9
$LUPREC
 70
     2
  9
$SKETCHINC
 40
0.0
  9
$FILLETRAD
 40
0.0
  9
$AUNITS
 70
     1
  9
$AUPREC
 70
     2
  9
$MENU
  1
ACAD
  9
$ELEVATION
 40
0.0
  9
$PELEVATION
 40
0.0
  9
$THICKNESS
 40
0.0
  9
$LIMCHECK
 70
     1
  9
$CHAMFERA
 40
0.0
  9
$CHAMFERB
 40
0.0
  9
$CHAMFERC
 40
0.0
  9
$CHAMFERD
 40
0.0
  9
$SKPOLY
 70
     0
  9
$TDCREATE
 40
2311945.483414664
  9
$TDUCREATE
 40
2311945.108414664
  9
$TDUPDATE
 40
2454305.456391782
  9
$TDUUPDATE
 40
2454305.081391782
  9
$TDINDWG
 40
0.0027633102
  9
$TDUSRTIMER
 40
0.0027609606
  9
$USRTIMER
 70
     1
  9
$ANGBASE
 50
0.0
  9
$ANGDIR
 70
     0
  9
$PDMODE
 70
     0
  9
$PDSIZE
 40
0.0
  9
$PLINEWID
 40
0.0
  9
$SPLFRAME
 70
     0
  9
$SPLINETYPE
 70
     6
  9
$SPLINESEGS
 70
     8
  9
$HANDSEED
  5
57D
  9
$SURFTAB1
 70
     6
  9
$SURFTAB2
 70
     6
  9
$SURFTYPE
 70
     6
  9
$SURFU
 70
     6
  9
$SURFV
 70
     6
  9
$UCSBASE
  2

  9
$UCSNAME
  2

  9
$UCSORG
 10
0.0
 20
0.0
 30
0.0
  9
$UCSXDIR
 10
1.0
 20
0.0
 30
0.0
  9
$UCSYDIR
 10
0.0
 20
1.0
 30
0.0
  9
$UCSORTHOREF
  2

  9
$UCSORTHOVIEW
 70
     0
  9
$UCSORGTOP
 10
0.0
 20
0.0
 30
0.0
  9
$UCSORGBOTTOM
 10
0.0
 20
0.0
 30
0.0
  9
$UCSORGLEFT
 10
0.0
 20
0.0
 30
0.0
  9
$UCSORGRIGHT
 10
0.0
 20
0.0
 30
0.0
  9
$UCSORGFRONT
 10
0.0
 20
0.0
 30
0.0
  9
$UCSORGBACK
 10
0.0
 20
0.0
 30
0.0
  9
$PUCSBASE
  2

  9
$PUCSNAME
  2

  9
$PUCSORG
 10
0.0
 20
0.0
 30
0.0
  9
$PUCSXDIR
 10
1.0
 20
0.0
 30
0.0
  9
$PUCSYDIR
 10
0.0
 20
1.0
 30
0.0
  9
$PUCSORTHOREF
  2

  9
$PUCSORTHOVIEW
 70
     0
  9
$PUCSORGTOP
 10
0.0
 20
0.0
 30
0.0
  9
$PUCSORGBOTTOM
 10
0.0
 20
0.0
 30
0.0
  9
$PUCSORGLEFT
 10
0.0
 20
0.0
 30
0.0
  9
$PUCSORGRIGHT
 10
0.0
 20
0.0
 30
0.0
  9
$PUCSORGFRONT
 10
0.0
 20
0.0
 30
0.0
  9
$PUCSORGBACK
 10
0.0
 20
0.0
 30
0.0
  9
$USERI1
 70
     0
  9
$USERI2
 70
     0
  9
$USERI3
 70
     0
  9
$USERI4
 70
     0
  9
$USERI5
 70
     0
  9
$USERR1
 40
0.0
  9
$USERR2
 40
0.0
  9
$USERR3
 40
0.0
  9
$USERR4
 40
0.0
  9
$USERR5
 40
0.0
  9
$WORLDVIEW
 70
     1
  9
$SHADEDGE
 70
     3
  9
$SHADEDIF
 70
    70
  9
$TILEMODE
 70
     1
  9
$MAXACTVP
 70
    64
  9
$PINSBASE
 10
0.0
 20
0.0
 30
0.0
  9
$PLIMCHECK
 70
     0
  9
$PEXTMIN
 10
0.0
 20
0.0
 30
0.0
  9
$PEXTMAX
 10
297.0
 20
210.0
 30
0.0
  9
$PLIMMIN
 10
0.0
 20
0.0
  9
$PLIMMAX
 10
12.0
 20
9.0
  9
$UNITMODE
 70
     0
  9
$VISRETAIN
 70
     1
  9
$PLINEGEN
 70
     0
  9
$PSLTSCALE
 70
     1
  9
$TREEDEPTH
 70
  3020
  9
$CMLSTYLE
  2
Standard
  9
$CMLJUST
 70
     0
  9
$CMLSCALE
 40
1.0
  9
$PROXYGRAPHICS
 70
     1
  9
$MEASUREMENT
 70
     0
  9
$CELWEIGHT
370
    -1
  9
$ENDCAPS
280
     0
  9
$JOINSTYLE
280
     0
  9
$LWDISPLAY
290
     0
  9
$INSUNITS
 70
     0
  9
$HYPERLINKBASE
  1

  9
$STYLESHEET
  1

  9
$XEDIT
290
     1
  9
$CEPSNTYPE
380
     0
  9
$PSTYLEMODE
290
     1
  9
$FINGERPRINTGUID
  2
{BAE46900-833B-48F9-AEEE-52090E3183B7}
  9
$VERSIONGUID
  2
{93C2C233-A284-44AD-8E0E-13473B765DFA}
  9
$EXTNAMES
290
     1
  9
$PSVPSCALE
 40
0.0
  9
$OLESTARTUP
290
     0
  0
ENDSEC
  0
SECTION
  2
CLASSES
  0
CLASS
  1
ACDBDICTIONARYWDFLT
  2
AcDbDictionaryWithDefault
  3
AutoCAD 2000
 90
        0
280
     0
281
     0
  0
CLASS
  1
ACDBPLACEHOLDER
  2
AcDbPlaceHolder
  3
AutoCAD 2000
 90
        0
280
     0
281
     0
  0
CLASS
  1
LAYOUT
  2
AcDbLayout
  3
AutoCAD 2000
 90
        0
280
     0
281
     0
  0
ENDSEC
  0
SECTION
  2
TABLES
  0
TABLE
  2
VPORT
  5
8
330
0
100
AcDbSymbolTable
 70
     2
  0
VPORT
  5
57C
330
8
100
AcDbSymbolTableRecord
100
AcDbViewportTableRecord
  2
*Active
 70
     0
 10
0.0
 20
0.0
 11
1.0
 21
1.0
 12
203.0341419497668
 22
150.0162509072295
 13
0.0
 23
0.0
 14
1.0
 24
1.0
 15
0.0
 25
0.0
 16
0.0
 26
0.0
 36
1.0
 17
0.0
 27
0.0
 37
0.0
 40
302.314117797839
 41
1.527918781725888
 42
50.0
 43
0.0
 44
0.0
 50
0.0
 51
0.0
 71
     0
 72
   100
 73
     1
 74
     1
 75
     0
 76
     0
 77
     0
 78
     0
281
     0
 65
     1
110
0.0
120
0.0
130
0.0
111
1.0
121
0.0
131
0.0
112
0.0
122
1.0
132
0.0
 79
     0
146
0.0
  0
ENDTAB
  0
TABLE
  2
LTYPE
  5
5
330
0
100
AcDbSymbolTable
 70
     7
  0
LTYPE
  5
13
330
5
100
AcDbSymbolTableRecord
100
AcDbLinetypeTableRecord
  2
ByBlock
 70
     0
  3

 72
    65
 73
     0
 40
0.0
  0
LTYPE
  5
14
330
5
100
AcDbSymbolTableRecord
100
AcDbLinetypeTableRecord
  2
ByLayer
 70
     0
  3

 72
    65
 73
     0
 40
0.0
  0
LTYPE
  5
15
330
5
100
AcDbSymbolTableRecord
100
AcDbLinetypeTableRecord
  2
CONTINUOUS
 70
     0
  3
Solid line
 72
    65
 73
     0
 40
0.0
  0
LTYPE
  5
22
330
5
100
AcDbSymbolTableRecord
100
AcDbLinetypeTableRecord
  2
HIDDEN
 70
     0
  3
------------------------
 72
    65
 73
     2
 40
12.6
 49
8.4
 74
     0
 49
-4.2
 74
     0
  0
LTYPE
  5
23
330
5
100
AcDbSymbolTableRecord
100
AcDbLinetypeTableRecord
  2
DOT
 70
     0
  3
････････････････････････
 72
    65
 73
     2
 40
8.0
 49
6.0
 74
     0
 49
-2.0
 74
     0
  0
LTYPE
  5
24
330
5
100
AcDbSymbolTableRecord
100
AcDbLinetypeTableRecord
  2
DASHDOT
 70
     0
  3
--･--･--･--･--･--･--･--
 72
    65
 73
     4
 40
50.5
 49
30.0
 74
     0
 49
-9.0
 74
     0
 49
2.5
 74
     0
 49
-9.0
 74
     0
  0
LTYPE
  5
25
330
5
100
AcDbSymbolTableRecord
100
AcDbLinetypeTableRecord
  2
DIVIDE
 70
     0
  3
--･･--･･--･･--･･--･･--
 72
    65
 73
     6
 40
58.0
 49
30.0
 74
     0
 49
-9.0
 74
     0
 49
2.5
 74
     0
 49
-5.0
 74
     0
 49
2.5
 74
     0
 49
-9.0
 74
     0
  0
LTYPE
  5
26
330
5
100
AcDbSymbolTableRecord
100
AcDbLinetypeTableRecord
  2
ACAD_ISO06W100
 70
     0
  3
____ ... ____ ... ____
 72
    65
 73
     8
 40
37.5
 49
24.0
 74
     0
 49
-3.0
 74
     0
 49
0.5
 74
     0
 49
-3.0
 74
     0
 49
0.5
 74
     0
 49
-3.0
 74
     0
 49
0.5
 74
     0
 49
-3.0
 74
     0
  0
LTYPE
  5
27
330
5
100
AcDbSymbolTableRecord
100
AcDbLinetypeTableRecord
  2
ACAD_ISO14W100
 70
     0
  3
__ . . . __ . . . __ . . . 
 72
    65
 73
     8
 40
25.5
 49
12.0
 74
     0
 49
-3.0
 74
     0
 49
0.5
 74
     0
 49
-3.0
 74
     0
 49
0.5
 74
     0
 49
-3.0
 74
     0
 49
0.5
 74
     0
 49
-3.0
 74
     0
  0
ENDTAB
  0
TABLE
  2
LAYER
  5
2
330
0
100
AcDbSymbolTable
 70
     3
  0
LAYER
  5
10
330
2
100
AcDbSymbolTableRecord
100
AcDbLayerTableRecord
  2
0
 70
     0
 62
     7
  6
CONTINUOUS
370
    -3
390
F
  0
LAYER
  5
28
330
2
100
AcDbSymbolTableRecord
100
AcDbLayerTableRecord
  2
1
 70
     0
 62
     7
  6
CONTINUOUS
370
    -3
390
F
  0
LAYER
  5
29
330
2
100
AcDbSymbolTableRecord
100
AcDbLayerTableRecord
  2
5
 70
     0
 62
     7
  6
CONTINUOUS
370
    -3
390
F
  0
ENDTAB
  0
TABLE
  2
STYLE
  5
3
330
0
100
AcDbSymbolTable
 70
     2
  0
STYLE
  5
11
330
3
100
AcDbSymbolTableRecord
100
AcDbTextStyleTableRecord
  2
STANDARD
 70
     0
 40
0.0
 41
1.0
 50
0.0
 71
     0
 42
0.2
  3
TXT
  4

  0
STYLE
  5
2A
330
3
100
AcDbSymbolTableRecord
100
AcDbTextStyleTableRecord
  2
KANJI
 70
     0
 40
0.0
 41
1.0
 50
0.0
 71
     0
 42
0.2
  3
TXT
  4
BIGFONT
  0
ENDTAB
  0
TABLE
  2
VIEW
  5
6
330
0
100
AcDbSymbolTable
 70
     0
  0
ENDTAB
  0
TABLE
  2
UCS
  5
7
330
0
100
AcDbSymbolTable
 70
     0
  0
ENDTAB
  0
TABLE
  2
APPID
  5
9
330
0
100
AcDbSymbolTable
 70
     1
  0
APPID
  5
12
330
9
100
AcDbSymbolTableRecord
100
AcDbRegAppTableRecord
  2
ACAD
 70
     0
  0
ENDTAB
  0
TABLE
  2
DIMSTYLE
  5
A
330
0
100
AcDbSymbolTable
 70
     1
100
AcDbDimStyleTable
 71
     0
  0
DIMSTYLE
105
57A
330
A
100
AcDbSymbolTableRecord
100
AcDbDimStyleTableRecord
  2
Standard
 70
     0
340
11
  0
ENDTAB
  0
TABLE
  2
BLOCK_RECORD
  5
1
330
0
100
AcDbSymbolTable
 70
     0
  0
BLOCK_RECORD
  5
1E
330
1
100
AcDbSymbolTableRecord
100
AcDbBlockTableRecord
  2
*Model_Space
340
21
  0
BLOCK_RECORD
  5
1A
330
1
100
AcDbSymbolTableRecord
100
AcDbBlockTableRecord
  2
*Paper_Space
340
1D
  0
ENDTAB
  0
ENDSEC
  0
SECTION
  2
BLOCKS
  0
BLOCK
  5
1F
330
1E
100
AcDbEntity
  8
0
100
AcDbBlockBegin
  2
*Model_Space
 70
     0
 10
0.0
 20
0.0
 30
0.0
  3
*Model_Space
  1

  0
ENDBLK
  5
20
330
1E
100
AcDbEntity
  8
0
100
AcDbBlockEnd
  0
BLOCK
  5
1B
330
1A
100
AcDbEntity
 67
     1
  8
0
100
AcDbBlockBegin
  2
*Paper_Space
 70
     0
 10
0.0
 20
0.0
 30
0.0
  3
*Paper_Space
  1

  0
ENDBLK
  5
1C
330
1A
100
AcDbEntity
 67
     1
  8
0
100
AcDbBlockEnd
  0
ENDSEC
  0
SECTION
  2
ENTITIES
  0
LINE
  5
2E
330
1E
100
AcDbEntity
  8
1
  6
Continuous
 62
     7
100
AcDbLine
 10
286.399439
 20
5.290191
 30
0.0
 11
286.399439
 21
195.3901909999999
 31
0.0
  0
LINE
  5
2F
330
1E
100
AcDbEntity
  8
1
  6
Continuous
 62
     7
100
AcDbLine
 10
286.399439
 20
195.3901909999999
 30
0.0
 11
9.299438999999999
 21
195.3901909999999
 31
0.0
  0
LINE
  5
30
330
1E
100
AcDbEntity
  8
1
  6
Continuous
 62
     7
100
AcDbLine
 10
9.299438999999999
 20
195.3901909999999
 30
0.0
 11
9.299438999999999
 21
5.290191
 31
0.0
  0
LINE
  5
31
330
1E
100
AcDbEntity
  8
1
  6
Continuous
 62
     7
100
AcDbLine
 10
9.299438999999999
 20
5.290191
 30
0.0
 11
286.399439
 21
5.290191
 31
0.0
  0
LINE
  5
32
330
1E
100
AcDbEntity
  8
1
  6
Continuous
 62
     7
100
AcDbLine
 10
96.399439
 20
5.290191
 30
0.0
 11
96.399439
 21
45.290191
 31
0.0
  0
LINE
  5
33
330
1E
100
AcDbEntity
  8
1
  6
Continuous
 62
     7
100
AcDbLine
 10
96.399439
 20
45.290191
 30
0.0
 11
286.399439
 21
45.290191
 31
0.0
  0
LINE
  5
34
330
1E
100
AcDbEntity
  8
1
  6
Continuous
 62
     7
100
AcDbLine
 10
96.399439
 20
35.290191
 30
0.0
 11
286.399439
 21
35.290191
 31
0.0
  0
LINE
  5
35
330
1E
100
AcDbEntity
  8
1
  6
Continuous
 62
     7
100
AcDbLine
 10
96.399439
 20
25.290191
 30
0.0
 11
286.399439
 21
25.290191
 31
0.0
  0
LINE
  5
36
330
1E
100
AcDbEntity
  8
1
  6
Continuous
 62
     7
100
AcDbLine
 10
96.399439
 20
15.290191
 30
0.0
 11
286.399439
 21
15.290191
 31
0.0
  0
LINE
  5
37
330
1E
100
AcDbEntity
  8
1
  6
Continuous
 62
     7
100
AcDbLine
 10
116.3994389999999
 20
45.290191
 30
0.0
 11
116.3994389999999
 21
5.290191
 31
0.0
  0
LINE
  5
38
330
1E
100
AcDbEntity
  8
1
  6
Continuous
 62
     7
100
AcDbLine
 10
136.399439
 20
5.290191
 30
0.0
 11
136.399439
 21
25.290191
 31
0.0
  0
LINE
  5
39
330
1E
100
AcDbEntity
  8
1
  6
Continuous
 62
     7
100
AcDbLine
 10
146.399439
 20
25.290191
 30
0.0
 11
146.399439
 21
45.290191
 31
0.0
  0
LINE
  5
3A
330
1E
100
AcDbEntity
  8
1
  6
Continuous
 62
     7
100
AcDbLine
 10
156.3994389999999
 20
5.290191
 30
0.0
 11
156.3994389999999
 21
25.290191
 31
0.0
  0
LINE
  5
3B
330
1E
100
AcDbEntity
  8
1
  6
Continuous
 62
     7
100
AcDbLine
 10
166.399439
 20
25.290191
 30
0.0
 11
166.399439
 21
45.290191
 31
0.0
  0
LINE
  5
3C
330
1E
100
AcDbEntity
  8
1
  6
Continuous
 62
     7
100
AcDbLine
 10
176.399439
 20
25.290191
 30
0.0
 11
176.399439
 21
5.290191
 31
0.0
  0
LINE
  5
3D
330
1E
100
AcDbEntity
  8
1
  6
Continuous
 62
     7
100
AcDbLine
 10
196.399439
 20
5.290191
 30
0.0
 11
196.399439
 21
45.290191
 31
0.0
  0
LINE
  5
3E
330
1E
100
AcDbEntity
  8
1
  6
Continuous
 62
     7
100
AcDbLine
 10
216.399439
 20
45.290191
 30
0.0
 11
216.399439
 21
15.290191
 31
0.0
  0
LINE
  5
3F
330
1E
100
AcDbEntity
  8
1
  6
Continuous
 62
     7
100
AcDbLine
 10
276.399439
 20
5.290191
 30
0.0
 11
276.399439
 21
15.290191
 31
0.0
  0
TEXT
  5
40
330
1E
100
AcDbEntity
  8
1
  6
Continuous
 62
     7
100
AcDbText
 10
101.1994389999999
 20
39.49019099999999
 30
0.0
 40
5.0
  1
尺度
 41
0.7
  7
KANJI
100
AcDbText
  0
TEXT
  5
41
330
1E
100
AcDbEntity
  8
1
  6
Continuous
 62
     7
100
AcDbText
 10
101.1994389999999
 20
29.19019099999999
 30
0.0
 40
5.0
  1
日付
 41
0.7
  7
KANJI
100
AcDbText
  0
TEXT
  5
42
330
1E
100
AcDbEntity
  8
1
  6
Continuous
 62
     7
100
AcDbText
 10
101.1994389999999
 20
19.090191
 30
0.0
 40
5.0
  1
承認
 41
0.7
  7
KANJI
100
AcDbText
  0
TEXT
  5
43
330
1E
100
AcDbEntity
  8
1
  6
Continuous
 62
     7
100
AcDbText
 10
121.1994389999999
 20
19.090191
 30
0.0
 40
5.0
  1
審査
 41
0.7
  7
KANJI
100
AcDbText
  0
TEXT
  5
44
330
1E
100
AcDbEntity
  8
1
  6
Continuous
 62
     7
100
AcDbText
 10
141.6994389999999
 20
19.090191
 30
0.0
 40
5.0
  1
検図
 41
0.7
  7
KANJI
100
AcDbText
  0
TEXT
  5
45
330
1E
100
AcDbEntity
  8
1
  6
Continuous
 62
     7
100
AcDbText
 10
161.999439
 20
19.090191
 30
0.0
 40
5.0
  1
設計
 41
0.7
  7
KANJI
100
AcDbText
  0
TEXT
  5
46
330
1E
100
AcDbEntity
  8
1
  6
Continuous
 62
     7
100
AcDbText
 10
181.7994389999999
 20
19.090191
 30
0.0
 40
5.0
  1
製図
 41
0.7
  7
KANJI
100
AcDbText
  0
TEXT
  5
47
330
1E
100
AcDbEntity
  8
1
  6
Continuous
 62
     7
100
AcDbText
 10
151.399439
 20
39.39019099999999
 30
0.0
 40
5.0
  1
製番
 41
0.7
  7
KANJI
100
AcDbText
  0
TEXT
  5
48
330
1E
100
AcDbEntity
  8
1
  6
Continuous
 62
     7
100
AcDbText
 10
151.399439
 20
29.090191
 30
0.0
 40
5.0
  1
図番
 41
0.7
  7
KANJI
100
AcDbText
  0
TEXT
  5
49
330
1E
100
AcDbEntity
  8
1
  6
Continuous
 62
     7
100
AcDbText
 10
198.7994389999999
 20
39.39019099999999
 30
0.0
 40
5.0
  1
納入先
 41
0.7
  7
KANJI
100
AcDbText
  0
TEXT
  5
4A
330
1E
100
AcDbEntity
  8
1
  6
Continuous
 62
     7
100
AcDbText
 10
201.399439
 20
19.090191
 30
0.0
 40
5.0
  1
図称
 41
0.7
  7
KANJI
100
AcDbText
  0
TEXT
  5
4B
330
1E
100
AcDbEntity
  8
1
  6
Continuous
 62
     7
100
AcDbText
 10
198.6994389999999
 20
9.590191
 30
0.0
 40
5.0
  1
（株）パーカーコーポレーション
 41
0.7
  7
KANJI
100
AcDbText
  0
TEXT
  5
4C
330
1E
100
AcDbEntity
  8
1
  6
Continuous
 62
     7
100
AcDbText
 10
101.9994389999999
 20
35.690191
 30
0.0
 40
3.0
  1
SCALE
 41
0.5
  7
KANJI
100
AcDbText
  0
TEXT
  5
4D
330
1E
100
AcDbEntity
  8
1
  6
Continuous
 62
     7
100
AcDbText
 10
102.9994389999999
 20
25.290191
 30
0.0
 40
3.0
  1
DATE
 41
0.5
  7
KANJI
100
AcDbText
  0
TEXT
  5
4E
330
1E
100
AcDbEntity
  8
1
  6
Continuous
 62
     7
100
AcDbText
 10
97.69943900000001
 20
15.290191
 30
0.0
 40
3.0
  1
APPROVED
 41
0.5
  7
KANJI
100
AcDbText
  0
TEXT
  5
4F
330
1E
100
AcDbEntity
  8
1
  6
Continuous
 62
     7
100
AcDbText
 10
111.599439
 20
15.290191
 30
0.0
 40
3.0
  1
BY
 41
0.5
  7
KANJI
100
AcDbText
  0
TEXT
  5
50
330
1E
100
AcDbEntity
  8
1
  6
Continuous
 62
     7
100
AcDbText
 10
117.2994389999999
 20
15.290191
 30
0.0
 40
3.0
  1
INSPECTED
 41
0.5
  7
KANJI
100
AcDbText
  0
TEXT
  5
51
330
1E
100
AcDbEntity
  8
1
  6
Continuous
 62
     7
100
AcDbText
 10
132.0994389999999
 20
15.290191
 30
0.0
 40
3.0
  1
BY
 41
0.5
  7
KANJI
100
AcDbText
  0
TEXT
  5
52
330
1E
100
AcDbEntity
  8
1
  6
Continuous
 62
     7
100
AcDbText
 10
139.0994389999999
 20
15.290191
 30
0.0
 40
3.0
  1
CHECKED
 41
0.5
  7
KANJI
100
AcDbText
  0
TEXT
  5
53
330
1E
100
AcDbEntity
  8
1
  6
Continuous
 62
     7
100
AcDbText
 10
150.7994389999999
 20
15.290191
 30
0.0
 40
3.0
  1
BY
 41
0.5
  7
KANJI
100
AcDbText
  0
TEXT
  5
54
330
1E
100
AcDbEntity
  8
1
  6
Continuous
 62
     7
100
AcDbText
 10
156.9994389999999
 20
15.290191
 30
0.0
 40
3.0
  1
DESINGNED
 41
0.5
  7
KANJI
100
AcDbText
  0
TEXT
  5
55
330
1E
100
AcDbEntity
  8
1
  6
Continuous
 62
     7
100
AcDbText
 10
171.8994389999999
 20
15.290191
 30
0.0
 40
3.0
  1
BY
 41
0.5
  7
KANJI
100
AcDbText
  0
TEXT
  5
56
330
1E
100
AcDbEntity
  8
1
  6
Continuous
 62
     7
100
AcDbText
 10
180.2994389999999
 20
15.290191
 30
0.0
 40
3.0
  1
DRAWN
 41
0.5
  7
KANJI
100
AcDbText
  0
TEXT
  5
57
330
1E
100
AcDbEntity
  8
1
  6
Continuous
 62
     7
100
AcDbText
 10
189.3994389999999
 20
15.290191
 30
0.0
 40
3.0
  1
BY
 41
0.5
  7
KANJI
100
AcDbText
  0
TEXT
  5
58
330
1E
100
AcDbEntity
  8
1
  6
Continuous
 62
     7
100
AcDbText
 10
149.499439
 20
35.290191
 30
0.0
 40
3.0
  1
WORK
 41
0.5
  7
KANJI
100
AcDbText
  0
TEXT
  5
59
330
1E
100
AcDbEntity
  8
1
  6
Continuous
 62
     7
100
AcDbText
 10
157.399439
 20
35.290191
 30
0.0
 40
3.0
  1
No.
 41
0.576923
  7
KANJI
100
AcDbText
  0
TEXT
  5
5A
330
1E
100
AcDbEntity
  8
1
  6
Continuous
 62
     7
100
AcDbText
 10
151.499439
 20
25.290191
 30
0.0
 40
3.0
  1
DWG
 41
0.5
  7
KANJI
100
AcDbText
  0
TEXT
  5
5B
330
1E
100
AcDbEntity
  8
1
  6
Continuous
 62
     7
100
AcDbText
 10
156.3994389999999
 20
25.290191
 30
0.0
 40
3.0
  1
No.
 41
0.576923
  7
KANJI
100
AcDbText
  0
TEXT
  5
5C
330
1E
100
AcDbEntity
  8
1
  6
Continuous
 62
     7
100
AcDbText
 10
200.0994389999999
 20
35.290191
 30
0.0
 40
3.0
  1
CUSTOMER
 41
0.5
  7
KANJI
100
AcDbText
  0
TEXT
  5
5D
330
1E
100
AcDbEntity
  8
1
  6
Continuous
 62
     7
100
AcDbText
 10
201.499439
 20
15.290191
 30
0.0
 40
3.0
  1
DWG
 41
0.5
  7
KANJI
100
AcDbText
  0
TEXT
  5
5E
330
1E
100
AcDbEntity
  8
1
  6
Continuous
 62
     7
100
AcDbText
 10
213.499439
 20
5.290191
 30
0.0
 40
3.0
  1
PARKER
 41
0.777778
  7
KANJI
100
AcDbText
  0
TEXT
  5
5F
330
1E
100
AcDbEntity
  8
1
  6
Continuous
 62
     7
100
AcDbText
 10
231.099439
 20
5.290191
 30
0.0
 40
3.0
  1
CORPORATION
 41
0.80303
  7
KANJI
100
AcDbText
  0
LINE
  5
60
330
1E
100
AcDbEntity
  8
5
  6
Continuous
 62
     7
100
AcDbLine
 10
406.0475109999999
 20
300.0237559999999
 30
0.0
 11
6.047511
 21
300.0237559999999
 31
0.0
  0
LINE
  5
61
330
1E
100
AcDbEntity
  8
1
  6
Continuous
 62
     7
100
AcDbLine
 10
286.404182
 20
188.0003889999999
 30
0.0
 11
286.404182
 21
187.8706169999999
 31
0.0
  0
LINE
  5
62
330
1E
100
AcDbEntity
  8
1
  6
Continuous
 62
     7
100
AcDbLine
 10
286.404182
 20
187.8706169999999
 30
0.0
 11
285.9041819999999
 21
187.8706169999999
 31
0.0
  0
LINE
  5
63
330
1E
100
AcDbEntity
  8
1
  6
Continuous
 62
     7
100
AcDbLine
 10
285.9041819999999
 20
187.8706169999999
 30
0.0
 11
285.9041819999999
 21
188.0003889999999
 31
0.0
  0
LINE
  5
64
330
1E
100
AcDbEntity
  8
1
  6
Continuous
 62
     7
100
AcDbLine
 10
283.651251
 20
195.3180659999999
 30
0.0
 11
283.69496
 21
195.3000389999999
 31
0.0
  0
LINE
  5
65
330
1E
100
AcDbEntity
  8
1
  6
Continuous
 62
     7
100
AcDbLine
 10
283.69496
 20
195.3000389999999
 30
0.0
 11
283.8063149999999
 21
195.235154
 31
0.0
  0
LINE
  5
66
330
1E
100
AcDbEntity
  8
1
  6
Continuous
 62
     7
100
AcDbLine
 10
204.7925149999999
 20
195.3180659999999
 30
0.0
 11
204.785961
 21
195.079024
 31
0.0
  0
LINE
  5
67
330
1E
100
AcDbEntity
  8
1
  6
Continuous
 62
     7
100
AcDbLine
 10
232.2248459999999
 20
195.079024
 30
0.0
 11
232.2182919999999
 21
195.3180659999999
 31
0.0
  0
LINE
  5
68
330
1E
100
AcDbEntity
  8
1
  6
Continuous
 62
     7
100
AcDbLine
 10
232.683856
 20
195.158111
 30
0.0
 11
232.7176069999999
 21
195.067954
 31
0.0
  0
LINE
  5
69
330
1E
100
AcDbEntity
  8
1
  6
Continuous
 62
     7
100
AcDbLine
 10
232.597829
 20
195.235154
 30
0.0
 11
232.683856
 21
195.158111
 31
0.0
  0
LINE
  5
6A
330
1E
100
AcDbEntity
  8
1
  6
Continuous
 62
     7
100
AcDbLine
 10
232.4272509999999
 20
195.3000389999999
 30
0.0
 11
232.597829
 21
195.235154
 31
0.0
  0
LINE
  5
6B
330
1E
100
AcDbEntity
  8
1
  6
Continuous
 62
     7
100
AcDbLine
 10
232.2182919999999
 20
195.3180659999999
 30
0.0
 11
232.4272509999999
 21
195.3000389999999
 31
0.0
  0
LINE
  5
6C
330
1E
100
AcDbEntity
  8
1
  6
Continuous
 62
     7
100
AcDbLine
 10
204.626378
 20
195.308097
 30
0.0
 11
204.7925149999999
 21
195.318065
 31
0.0
  0
LINE
  5
6D
330
1E
100
AcDbEntity
  8
1
  6
Continuous
 62
     7
100
AcDbLine
 10
204.4789909999999
 20
195.2682209999999
 30
0.0
 11
204.626378
 21
195.308097
 31
0.0
  0
LINE
  5
6E
330
1E
100
AcDbEntity
  8
1
  6
Continuous
 62
     7
100
AcDbLine
 10
204.3455709999999
 20
195.180829
 30
0.0
 11
204.4789909999999
 21
195.2682209999999
 31
0.0
  0
LINE
  5
6F
330
1E
100
AcDbEntity
  8
1
  6
Continuous
 62
     7
100
AcDbLine
 10
204.2931999999999
 20
195.067953
 30
0.0
 11
204.3455709999999
 21
195.180829
 31
0.0
  0
LINE
  5
70
330
1E
100
AcDbEntity
  8
1
  6
Continuous
 62
     7
100
AcDbLine
 10
204.7925149999999
 20
195.3180659999999
 30
0.0
 11
232.2182919999999
 21
195.3180659999999
 31
0.0
  0
LINE
  5
71
330
1E
100
AcDbEntity
  8
1
  6
Continuous
 62
     7
100
AcDbLine
 10
194.6054029999999
 20
196.214299
 30
0.0
 11
195.005403
 21
196.214299
 31
0.0
  0
LINE
  5
72
330
1E
100
AcDbEntity
  8
1
  6
Continuous
 62
     7
100
AcDbLine
 10
195.005403
 20
196.214299
 30
0.0
 11
196.005403
 21
196.214299
 31
0.0
  0
TEXT
  5
73
330
1E
100
AcDbEntity
  8
1
  6
Continuous
 62
     7
100
AcDbText
 10
200.497594
 20
29.28764199999999
 30
0.0
 40
5.0
  1
名称
 41
0.833333
  7
KANJI
100
AcDbText
  0
TEXT
  5
74
330
1E
100
AcDbEntity
  8
1
  6
Continuous
 62
     7
100
AcDbText
 10
206.7994389999999
 20
15.290191
 30
0.0
 40
3.0
  1
NAME
 41
0.5
  7
KANJI
100
AcDbText
  0
TEXT
  5
75
330
1E
100
AcDbEntity
  8
1
  6
Continuous
 62
     7
100
AcDbText
 10
201.8478589999999
 20
25.290191
 30
0.0
 40
3.0
  1
TITLE
 41
0.5
  7
KANJI
100
AcDbText
  0
LINE
  5
76
330
1E
100
AcDbEntity
  8
1
  6
Continuous
 62
     7
100
AcDbLine
 10
42.50972700000001
 20
116.0373989999999
 30
0.0
 11
43.009727
 21
116.0373989999999
 31
0.0
  0
LINE
  5
77
330
1E
100
AcDbEntity
  8
1
  6
Continuous
 62
     7
100
AcDbLine
 10
43.009727
 20
116.167171
 30
0.0
 11
43.009727
 21
116.009329
 31
0.0
  0
LINE
  5
78
330
1E
100
AcDbEntity
  8
1
  6
Continuous
 62
     7
100
AcDbLine
 10
42.50972700000001
 20
116.167171
 30
0.0
 11
42.50972700000001
 21
116.009329
 31
0.0
  0
LINE
  5
79
330
1E
100
AcDbEntity
  8
1
  6
Continuous
 62
     7
100
AcDbLine
 10
70.909727
 20
114.881082
 30
0.0
 11
70.435245
 21
114.381082
 31
0.0
  0
LINE
  5
7A
330
1E
100
AcDbEntity
  8
1
  6
Continuous
 62
     7
100
AcDbLine
 10
48.82775999999999
 20
115.274436
 30
0.0
 11
48.75972700000001
 21
116.381082
 31
0.0
  0
LINE
  5
7B
330
1E
100
AcDbEntity
  8
1
  6
Continuous
 62
     7
100
AcDbLine
 10
49.031795
 20
114.1849
 30
0.0
 11
48.82775999999999
 21
115.274436
 31
0.0
  0
LINE
  5
7C
330
1E
100
AcDbEntity
  8
1
  6
Continuous
 62
     7
100
AcDbLine
 10
49.380834
 20
113.094822
 30
0.0
 11
49.031795
 21
114.1849
 31
0.0
  0
LINE
  5
7D
330
1E
100
AcDbEntity
  8
1
  6
Continuous
 62
     7
100
AcDbLine
 10
49.865814
 20
112.058335
 30
0.0
 11
49.380834
 21
113.094822
 31
0.0
  0
LINE
  5
7E
330
1E
100
AcDbEntity
  8
1
  6
Continuous
 62
     7
100
AcDbLine
 10
50.478044
 20
111.0912389999999
 30
0.0
 11
49.865814
 21
112.058335
 31
0.0
  0
LINE
  5
7F
330
1E
100
AcDbEntity
  8
1
  6
Continuous
 62
     7
100
AcDbLine
 10
51.20834399999999
 20
110.2102319999999
 30
0.0
 11
50.478044
 21
111.0912389999999
 31
0.0
  0
LINE
  5
80
330
1E
100
AcDbEntity
  8
1
  6
Continuous
 62
     7
100
AcDbLine
 10
52.01663899999999
 20
109.4513169999999
 30
0.0
 11
51.20834399999999
 21
110.2102319999999
 31
0.0
  0
LINE
  5
81
330
1E
100
AcDbEntity
  8
1
  6
Continuous
 62
     7
100
AcDbLine
 10
52.912203
 20
108.798107
 30
0.0
 11
52.01663899999999
 21
109.4513169999999
 31
0.0
  0
LINE
  5
82
330
1E
100
AcDbEntity
  8
1
  6
Continuous
 62
     7
100
AcDbLine
 10
53.881254
 20
108.2593739999999
 30
0.0
 11
52.912203
 21
108.798107
 31
0.0
  0
LINE
  5
83
330
1E
100
AcDbEntity
  8
1
  6
Continuous
 62
     7
100
AcDbLine
 10
54.909142
 20
107.8444449999999
 30
0.0
 11
53.881254
 21
108.2593739999999
 31
0.0
  0
LINE
  5
84
330
1E
100
AcDbEntity
  8
1
  6
Continuous
 62
     7
100
AcDbLine
 10
56.015588
 20
107.5513979999999
 30
0.0
 11
54.909142
 21
107.8444449999999
 31
0.0
  0
LINE
  5
85
330
1E
100
AcDbEntity
  8
1
  6
Continuous
 62
     7
100
AcDbLine
 10
57.1501
 20
107.4017519999999
 30
0.0
 11
56.015588
 21
107.5513979999999
 31
0.0
  0
LINE
  5
86
330
1E
100
AcDbEntity
  8
1
  6
Continuous
 62
     7
100
AcDbLine
 10
58.29468399999999
 20
107.396698
 30
0.0
 11
57.1501
 21
107.4017519999999
 31
0.0
  0
LINE
  5
87
330
1E
100
AcDbEntity
  8
1
  6
Continuous
 62
     7
100
AcDbLine
 10
59.430329
 20
107.5374919999999
 30
0.0
 11
58.29468399999999
 21
107.396698
 31
0.0
  0
LINE
  5
88
330
1E
100
AcDbEntity
  8
1
  6
Continuous
 62
     7
100
AcDbLine
 10
60.504983
 20
107.8097349999999
 30
0.0
 11
59.430329
 21
107.5374919999999
 31
0.0
  0
LINE
  5
89
330
1E
100
AcDbEntity
  8
1
  6
Continuous
 62
     7
100
AcDbLine
 10
61.537841
 20
108.212492
 30
0.0
 11
60.504983
 21
107.8097349999999
 31
0.0
  0
LINE
  5
8A
330
1E
100
AcDbEntity
  8
1
  6
Continuous
 62
     7
100
AcDbLine
 10
66.106971
 20
113.015233
 30
0.0
 11
65.609727
 21
111.9790939999999
 31
0.0
  0
LINE
  5
8B
330
1E
100
AcDbEntity
  8
1
  6
Continuous
 62
     7
100
AcDbLine
 10
66.46748199999999
 20
114.1062189999999
 30
0.0
 11
66.106971
 21
113.015233
 31
0.0
  0
LINE
  5
8C
330
1E
100
AcDbEntity
  8
1
  6
Continuous
 62
     7
100
AcDbLine
 10
66.68664799999999
 20
115.234268
 30
0.0
 11
66.46748199999999
 21
114.1062189999999
 31
0.0
  0
LINE
  5
8D
330
1E
100
AcDbEntity
  8
1
  6
Continuous
 62
     7
100
AcDbLine
 10
66.75972699999999
 20
116.381082
 30
0.0
 11
66.68664799999999
 21
115.234268
 31
0.0
  0
LINE
  5
8E
330
1E
100
AcDbEntity
  8
1
  6
Continuous
 62
     7
100
AcDbLine
 10
54.121402
 20
132.4530659999999
 30
0.0
 11
54.259727
 21
132.475896
 31
0.0
  0
LINE
  5
8F
330
1E
100
AcDbEntity
  8
1
  6
Continuous
 62
     7
100
AcDbLine
 10
53.44262
 20
132.318281
 30
0.0
 11
54.121402
 21
132.4530659999999
 31
0.0
  0
LINE
  5
90
330
1E
100
AcDbEntity
  8
1
  6
Continuous
 62
     7
100
AcDbLine
 10
53.009727
 20
132.21836
 30
0.0
 11
53.44262
 21
132.318281
 31
0.0
  0
LINE
  5
91
330
1E
100
AcDbEntity
  8
1
  6
Continuous
 62
     7
100
AcDbLine
 10
75.227116
 20
123.4711239999999
 30
0.0
 11
75.262658
 21
123.4848479999999
 31
0.0
  0
LINE
  5
92
330
1E
100
AcDbEntity
  8
1
  6
Continuous
 62
     7
100
AcDbLine
 10
40.130039
 20
122.9926089999999
 30
0.0
 11
40.09163899999999
 21
122.984624
 31
0.0
  0
LINE
  5
93
330
1E
100
AcDbEntity
  8
1
  6
Continuous
 62
     7
100
AcDbLine
 10
75.38941499999999
 20
122.9926089999999
 30
0.0
 11
75.427815
 21
122.984624
 31
0.0
  0
LINE
  5
94
330
1E
100
AcDbEntity
  8
1
  6
Continuous
 62
     7
100
AcDbLine
 10
75.118314
 20
114.387453
 30
0.0
 11
74.877335
 21
114.381082
 31
0.0
  0
LINE
  5
95
330
1E
100
AcDbEntity
  8
1
  6
Continuous
 62
     7
100
AcDbLine
 10
75.317155
 20
114.3926959999999
 30
0.0
 11
75.118314
 21
114.387453
 31
0.0
  0
LINE
  5
96
330
1E
100
AcDbEntity
  8
1
  6
Continuous
 62
     7
100
AcDbLine
 10
75.58444200000001
 20
114.399585
 30
0.0
 11
75.317155
 21
114.3926959999999
 31
0.0
  0
LINE
  5
97
330
1E
100
AcDbEntity
  8
1
  6
Continuous
 62
     7
100
AcDbLine
 10
75.713261
 20
114.402974
 30
0.0
 11
75.58444200000001
 21
114.399585
 31
0.0
  0
LINE
  5
98
330
1E
100
AcDbEntity
  8
1
  6
Continuous
 62
     7
100
AcDbLine
 10
75.805278
 20
114.4053949999999
 30
0.0
 11
75.713261
 21
114.402974
 31
0.0
  0
LINE
  5
99
330
1E
100
AcDbEntity
  8
1
  6
Continuous
 62
     7
100
AcDbLine
 10
75.87733599999999
 20
114.40725
 30
0.0
 11
75.805278
 21
114.4053949999999
 31
0.0
  0
LINE
  5
9A
330
1E
100
AcDbEntity
  8
1
  6
Continuous
 62
     7
100
AcDbLine
 10
39.714178
 20
114.4053949999999
 30
0.0
 11
39.64211799999999
 21
114.40725
 31
0.0
  0
LINE
  5
9B
330
1E
100
AcDbEntity
  8
1
  6
Continuous
 62
     7
100
AcDbLine
 10
39.806196
 20
114.402974
 30
0.0
 11
39.714178
 21
114.4053949999999
 31
0.0
  0
LINE
  5
9C
330
1E
100
AcDbEntity
  8
1
  6
Continuous
 62
     7
100
AcDbLine
 10
39.93501099999999
 20
114.399585
 30
0.0
 11
39.806196
 21
114.402974
 31
0.0
  0
LINE
  5
9D
330
1E
100
AcDbEntity
  8
1
  6
Continuous
 62
     7
100
AcDbLine
 10
40.202311
 20
114.3926949999999
 30
0.0
 11
39.93501099999999
 21
114.399585
 31
0.0
  0
LINE
  5
9E
330
1E
100
AcDbEntity
  8
1
  6
Continuous
 62
     7
100
AcDbLine
 10
40.40114899999999
 20
114.387453
 30
0.0
 11
40.202311
 21
114.3926949999999
 31
0.0
  0
LINE
  5
9F
330
1E
100
AcDbEntity
  8
1
  6
Continuous
 62
     7
100
AcDbLine
 10
40.642119
 20
114.381082
 30
0.0
 11
40.40114899999999
 21
114.387453
 31
0.0
  0
LINE
  5
A0
330
1E
100
AcDbEntity
  8
1
  6
Continuous
 62
     7
100
AcDbLine
 10
61.849064
 20
137.121474
 30
0.0
 11
61.76855899999999
 21
137.131082
 31
0.0
  0
LINE
  5
A1
330
1E
100
AcDbEntity
  8
1
  6
Continuous
 62
     7
100
AcDbLine
 10
61.926475
 20
137.0930219999999
 30
0.0
 11
61.849064
 21
137.121474
 31
0.0
  0
LINE
  5
A2
330
1E
100
AcDbEntity
  8
1
  6
Continuous
 62
     7
100
AcDbLine
 10
61.997817
 20
137.046817
 30
0.0
 11
61.926475
 21
137.0930219999999
 31
0.0
  0
LINE
  5
A3
330
1E
100
AcDbEntity
  8
1
  6
Continuous
 62
     7
100
AcDbLine
 10
62.06034999999999
 20
136.9846349999999
 30
0.0
 11
61.997817
 21
137.046817
 31
0.0
  0
LINE
  5
A4
330
1E
100
AcDbEntity
  8
1
  6
Continuous
 62
     7
100
AcDbLine
 10
62.111668
 20
136.9088669999999
 30
0.0
 11
62.06034999999999
 21
136.9846349999999
 31
0.0
  0
LINE
  5
A5
330
1E
100
AcDbEntity
  8
1
  6
Continuous
 62
     7
100
AcDbLine
 10
62.149802
 20
136.822424
 30
0.0
 11
62.111668
 21
136.9088669999999
 31
0.0
  0
LINE
  5
A6
330
1E
100
AcDbEntity
  8
1
  6
Continuous
 62
     7
100
AcDbLine
 10
62.17328399999999
 20
136.7286269999999
 30
0.0
 11
62.149802
 21
136.822424
 31
0.0
  0
LINE
  5
A7
330
1E
100
AcDbEntity
  8
1
  6
Continuous
 62
     7
100
AcDbLine
 10
62.18121299999999
 20
136.631082
 30
0.0
 11
62.17328399999999
 21
136.7286269999999
 31
0.0
  0
LINE
  5
A8
330
1E
100
AcDbEntity
  8
1
  6
Continuous
 62
     7
100
AcDbLine
 10
65.25716700000001
 20
132.929854
 30
0.0
 11
65.26187799999999
 21
132.881082
 31
0.0
  0
LINE
  5
A9
330
1E
100
AcDbEntity
  8
1
  6
Continuous
 62
     7
100
AcDbLine
 10
65.243216
 20
132.976753
 30
0.0
 11
65.25716700000001
 21
132.929854
 31
0.0
  0
LINE
  5
AA
330
1E
100
AcDbEntity
  8
1
  6
Continuous
 62
     7
100
AcDbLine
 10
65.22055999999999
 20
133.0199739999999
 30
0.0
 11
65.243216
 21
132.976753
 31
0.0
  0
LINE
  5
AB
330
1E
100
AcDbEntity
  8
1
  6
Continuous
 62
     7
100
AcDbLine
 10
65.19006999999999
 20
133.057858
 30
0.0
 11
65.22055999999999
 21
133.0199739999999
 31
0.0
  0
LINE
  5
AC
330
1E
100
AcDbEntity
  8
1
  6
Continuous
 62
     7
100
AcDbLine
 10
65.15291799999999
 20
133.0889489999999
 30
0.0
 11
65.19006999999999
 21
133.057858
 31
0.0
  0
LINE
  5
AD
330
1E
100
AcDbEntity
  8
1
  6
Continuous
 62
     7
100
AcDbLine
 10
65.11053100000001
 20
133.112052
 30
0.0
 11
65.15291799999999
 21
133.0889489999999
 31
0.0
  0
LINE
  5
AE
330
1E
100
AcDbEntity
  8
1
  6
Continuous
 62
     7
100
AcDbLine
 10
65.06454000000001
 20
133.126278
 30
0.0
 11
65.11053100000001
 21
133.112052
 31
0.0
  0
LINE
  5
AF
330
1E
100
AcDbEntity
  8
1
  6
Continuous
 62
     7
100
AcDbLine
 10
65.01671
 20
133.131082
 30
0.0
 11
65.06454000000001
 21
133.126278
 31
0.0
  0
LINE
  5
B0
330
1E
100
AcDbEntity
  8
1
  6
Continuous
 62
     7
100
AcDbLine
 10
57.92971
 20
136.7286269999999
 30
0.0
 11
57.936503
 21
136.631082
 31
0.0
  0
LINE
  5
B1
330
1E
100
AcDbEntity
  8
1
  6
Continuous
 62
     7
100
AcDbLine
 10
57.90959100000001
 20
136.822424
 30
0.0
 11
57.92971
 21
136.7286269999999
 31
0.0
  0
LINE
  5
B2
330
1E
100
AcDbEntity
  8
1
  6
Continuous
 62
     7
100
AcDbLine
 10
57.87691899999999
 20
136.9088669999999
 30
0.0
 11
57.90959100000001
 21
136.822424
 31
0.0
  0
LINE
  5
B3
330
1E
100
AcDbEntity
  8
1
  6
Continuous
 62
     7
100
AcDbLine
 10
57.83294999999999
 20
136.9846349999999
 30
0.0
 11
57.87691899999999
 21
136.9088669999999
 31
0.0
  0
LINE
  5
B4
330
1E
100
AcDbEntity
  8
1
  6
Continuous
 62
     7
100
AcDbLine
 10
57.77937399999999
 20
137.046817
 30
0.0
 11
57.83294999999999
 21
136.9846349999999
 31
0.0
  0
LINE
  5
B5
330
1E
100
AcDbEntity
  8
1
  6
Continuous
 62
     7
100
AcDbLine
 10
57.718249
 20
137.0930219999999
 30
0.0
 11
57.77937399999999
 21
137.046817
 31
0.0
  0
LINE
  5
B6
330
1E
100
AcDbEntity
  8
1
  6
Continuous
 62
     7
100
AcDbLine
 10
57.651925
 20
137.121474
 30
0.0
 11
57.718249
 21
137.0930219999999
 31
0.0
  0
LINE
  5
B7
330
1E
100
AcDbEntity
  8
1
  6
Continuous
 62
     7
100
AcDbLine
 10
57.58295
 20
137.131082
 30
0.0
 11
57.651925
 21
137.121474
 31
0.0
  0
LINE
  5
B8
330
1E
100
AcDbEntity
  8
1
  6
Continuous
 62
     7
100
AcDbLine
 10
60.352568
 20
132.929854
 30
0.0
 11
60.356131
 21
132.881082
 31
0.0
  0
LINE
  5
B9
330
1E
100
AcDbEntity
  8
1
  6
Continuous
 62
     7
100
AcDbLine
 10
60.342014
 20
132.976753
 30
0.0
 11
60.352568
 21
132.929854
 31
0.0
  0
LINE
  5
BA
330
1E
100
AcDbEntity
  8
1
  6
Continuous
 62
     7
100
AcDbLine
 10
60.324876
 20
133.0199739999999
 30
0.0
 11
60.342014
 21
132.976753
 31
0.0
  0
LINE
  5
BB
330
1E
100
AcDbEntity
  8
1
  6
Continuous
 62
     7
100
AcDbLine
 10
60.301812
 20
133.057858
 30
0.0
 11
60.324876
 21
133.0199739999999
 31
0.0
  0
LINE
  5
BC
330
1E
100
AcDbEntity
  8
1
  6
Continuous
 62
     7
100
AcDbLine
 10
60.27370799999999
 20
133.0889489999999
 30
0.0
 11
60.301812
 21
133.057858
 31
0.0
  0
LINE
  5
BD
330
1E
100
AcDbEntity
  8
1
  6
Continuous
 62
     7
100
AcDbLine
 10
60.241645
 20
133.112052
 30
0.0
 11
60.27370799999999
 21
133.0889489999999
 31
0.0
  0
LINE
  5
BE
330
1E
100
AcDbEntity
  8
1
  6
Continuous
 62
     7
100
AcDbLine
 10
60.206855
 20
133.126278
 30
0.0
 11
60.241645
 21
133.112052
 31
0.0
  0
LINE
  5
BF
330
1E
100
AcDbEntity
  8
1
  6
Continuous
 62
     7
100
AcDbLine
 10
60.170674
 20
133.131082
 30
0.0
 11
60.206855
 21
133.126278
 31
0.0
  0
LINE
  5
C0
330
1E
100
AcDbEntity
  8
1
  6
Continuous
 62
     7
100
AcDbLine
 10
68.114638
 20
105.8146739999999
 30
0.0
 11
68.0008
 21
105.9886389999999
 31
0.0
  0
LINE
  5
C1
330
1E
100
AcDbEntity
  8
1
  6
Continuous
 62
     7
100
AcDbLine
 10
68.20413999999999
 20
105.519603
 30
0.0
 11
68.114638
 21
105.8146739999999
 31
0.0
  0
LINE
  5
C2
330
1E
100
AcDbEntity
  8
1
  6
Continuous
 62
     7
100
AcDbLine
 10
68.207936
 20
105.33169
 30
0.0
 11
68.20413999999999
 21
105.519603
 31
0.0
  0
LINE
  5
C3
330
1E
100
AcDbEntity
  8
1
  6
Continuous
 62
     7
100
AcDbLine
 10
63.667956
 20
105.9361129999999
 30
0.0
 11
63.62544
 21
105.732606
 31
0.0
  0
LINE
  5
C4
330
1E
100
AcDbEntity
  8
1
  6
Continuous
 62
     7
100
AcDbLine
 10
63.813316
 20
106.2080469999999
 30
0.0
 11
63.667956
 21
105.9361129999999
 31
0.0
  0
LINE
  5
C5
330
1E
100
AcDbEntity
  8
1
  6
Continuous
 62
     7
100
AcDbLine
 10
63.943506
 20
106.343606
 30
0.0
 11
63.813316
 21
106.2080469999999
 31
0.0
  0
LINE
  5
C6
330
1E
100
AcDbEntity
  8
1
  6
Continuous
 62
     7
100
AcDbLine
 10
67.989187
 20
103.090804
 30
0.0
 11
68.02895699999999
 21
103.2859509999999
 31
0.0
  0
LINE
  5
C7
330
1E
100
AcDbEntity
  8
1
  6
Continuous
 62
     7
100
AcDbLine
 10
67.85407499999999
 20
102.827679
 30
0.0
 11
67.989187
 21
103.090804
 31
0.0
  0
LINE
  5
C8
330
1E
100
AcDbEntity
  8
1
  6
Continuous
 62
     7
100
AcDbLine
 10
67.63198299999999
 20
102.616032
 30
0.0
 11
67.85407499999999
 21
102.827679
 31
0.0
  0
LINE
  5
C9
330
1E
100
AcDbEntity
  8
1
  6
Continuous
 62
     7
100
AcDbLine
 10
67.35558199999999
 20
102.4933829999999
 30
0.0
 11
67.63198299999999
 21
102.616032
 31
0.0
  0
LINE
  5
CA
330
1E
100
AcDbEntity
  8
1
  6
Continuous
 62
     7
100
AcDbLine
 10
67.05394100000001
 20
102.467816
 30
0.0
 11
67.35558199999999
 21
102.4933829999999
 31
0.0
  0
LINE
  5
CB
330
1E
100
AcDbEntity
  8
1
  6
Continuous
 62
     7
100
AcDbLine
 10
64.069449
 20
102.751622
 30
0.0
 11
64.264596
 21
102.711852
 31
0.0
  0
LINE
  5
CC
330
1E
100
AcDbEntity
  8
1
  6
Continuous
 62
     7
100
AcDbLine
 10
63.80632399999999
 20
102.8867339999999
 30
0.0
 11
64.069449
 21
102.751622
 31
0.0
  0
LINE
  5
CD
330
1E
100
AcDbEntity
  8
1
  6
Continuous
 62
     7
100
AcDbLine
 10
63.594677
 20
103.108825
 30
0.0
 11
63.80632399999999
 21
102.8867339999999
 31
0.0
  0
LINE
  5
CE
330
1E
100
AcDbEntity
  8
1
  6
Continuous
 62
     7
100
AcDbLine
 10
63.472028
 20
103.3852259999999
 30
0.0
 11
63.594677
 21
103.108825
 31
0.0
  0
LINE
  5
CF
330
1E
100
AcDbEntity
  8
1
  6
Continuous
 62
     7
100
AcDbLine
 10
63.446461
 20
103.686867
 30
0.0
 11
63.472028
 21
103.3852259999999
 31
0.0
  0
LINE
  5
D0
330
1E
100
AcDbEntity
  8
1
  6
Continuous
 62
     7
100
AcDbLine
 10
65.480529
 20
107.5950009999999
 30
0.0
 11
65.268686
 21
107.455564
 31
0.0
  0
LINE
  5
D1
330
1E
100
AcDbEntity
  8
1
  6
Continuous
 62
     7
100
AcDbLine
 10
65.83468
 20
107.710102
 30
0.0
 11
65.480529
 21
107.5950009999999
 31
0.0
  0
LINE
  5
D2
330
1E
100
AcDbEntity
  8
1
  6
Continuous
 62
     7
100
AcDbLine
 10
66.230136
 20
107.702519
 30
0.0
 11
65.83468
 21
107.710102
 31
0.0
  0
LINE
  5
D3
330
1E
100
AcDbEntity
  8
1
  6
Continuous
 62
     7
100
AcDbLine
 10
66.59152900000001
 20
107.563208
 30
0.0
 11
66.230136
 21
107.702519
 31
0.0
  0
LINE
  5
D4
330
1E
100
AcDbEntity
  8
1
  6
Continuous
 62
     7
100
AcDbLine
 10
66.88884300000001
 20
107.3138189999999
 30
0.0
 11
66.59152900000001
 21
107.563208
 31
0.0
  0
LINE
  5
D5
330
1E
100
AcDbEntity
  8
1
  6
Continuous
 62
     7
100
AcDbLine
 10
63.96474300000001
 20
106.1786389999999
 30
0.0
 11
64.029989
 21
106.24054
 31
0.0
  0
LINE
  5
D6
330
1E
100
AcDbEntity
  8
1
  6
Continuous
 62
     7
100
AcDbLine
 10
63.82365799999999
 20
105.9657639999999
 30
0.0
 11
63.96474300000001
 21
106.1786389999999
 31
0.0
  0
LINE
  5
D7
330
1E
100
AcDbEntity
  8
1
  6
Continuous
 62
     7
100
AcDbLine
 10
63.759471
 20
105.72088
 30
0.0
 11
63.82365799999999
 21
105.9657639999999
 31
0.0
  0
LINE
  5
D8
330
1E
100
AcDbEntity
  8
1
  6
Continuous
 62
     7
100
AcDbLine
 10
68.07627
 20
105.433324
 30
0.0
 11
68.073904
 21
105.3434159999999
 31
0.0
  0
LINE
  5
D9
330
1E
100
AcDbEntity
  8
1
  6
Continuous
 62
     7
100
AcDbLine
 10
68.025506
 20
105.68361
 30
0.0
 11
68.07627
 21
105.433324
 31
0.0
  0
LINE
  5
DA
330
1E
100
AcDbEntity
  8
1
  6
Continuous
 62
     7
100
AcDbLine
 10
67.897734
 20
105.902156
 30
0.0
 11
68.025506
 21
105.68361
 31
0.0
  0
LINE
  5
DB
330
1E
100
AcDbEntity
  8
1
  6
Continuous
 62
     7
100
AcDbLine
 10
63.58588000000001
 20
103.4996459999999
 30
0.0
 11
63.58049300000001
 21
103.6751409999999
 31
0.0
  0
LINE
  5
DC
330
1E
100
AcDbEntity
  8
1
  6
Continuous
 62
     7
100
AcDbLine
 10
63.661939
 20
103.2602269999999
 30
0.0
 11
63.58588000000001
 21
103.4996459999999
 31
0.0
  0
LINE
  5
DD
330
1E
100
AcDbEntity
  8
1
  6
Continuous
 62
     7
100
AcDbLine
 10
63.818573
 20
103.051146
 30
0.0
 11
63.661939
 21
103.2602269999999
 31
0.0
  0
LINE
  5
DE
330
1E
100
AcDbEntity
  8
1
  6
Continuous
 62
     7
100
AcDbLine
 10
64.031449
 20
102.9100649999999
 30
0.0
 11
63.818573
 21
103.051146
 31
0.0
  0
LINE
  5
DF
330
1E
100
AcDbEntity
  8
1
  6
Continuous
 62
     7
100
AcDbLine
 10
64.27632199999999
 20
102.845884
 30
0.0
 11
64.031449
 21
102.9100649999999
 31
0.0
  0
LINE
  5
E0
330
1E
100
AcDbEntity
  8
1
  6
Continuous
 62
     7
100
AcDbLine
 10
66.63911299999999
 20
107.369211
 30
0.0
 11
66.785776
 21
107.227335
 31
0.0
  0
LINE
  5
E1
330
1E
100
AcDbEntity
  8
1
  6
Continuous
 62
     7
100
AcDbLine
 10
66.34736700000001
 20
107.5307429999999
 30
0.0
 11
66.63911299999999
 21
107.369211
 31
0.0
  0
LINE
  5
E2
330
1E
100
AcDbEntity
  8
1
  6
Continuous
 62
     7
100
AcDbLine
 10
66.006888
 20
107.589898
 30
0.0
 11
66.34736700000001
 21
107.5307429999999
 31
0.0
  0
LINE
  5
E3
330
1E
100
AcDbEntity
  8
1
  6
Continuous
 62
     7
100
AcDbLine
 10
65.67234899999999
 20
107.531854
 30
0.0
 11
66.006888
 21
107.589898
 31
0.0
  0
LINE
  5
E4
330
1E
100
AcDbEntity
  8
1
  6
Continuous
 62
     7
100
AcDbLine
 10
65.35516899999999
 20
107.352497
 30
0.0
 11
65.67234899999999
 21
107.531854
 31
0.0
  0
LINE
  5
E5
330
1E
100
AcDbEntity
  8
1
  6
Continuous
 62
     7
100
AcDbLine
 10
67.234381
 20
102.6062669999999
 30
0.0
 11
67.065667
 21
102.601848
 31
0.0
  0
LINE
  5
E6
330
1E
100
AcDbEntity
  8
1
  6
Continuous
 62
     7
100
AcDbLine
 10
67.47460799999998
 20
102.6803
 30
0.0
 11
67.234381
 21
102.6062669999999
 31
0.0
  0
LINE
  5
E7
330
1E
100
AcDbEntity
  8
1
  6
Continuous
 62
     7
100
AcDbLine
 10
67.68489999999999
 20
102.834877
 30
0.0
 11
67.47460799999998
 21
102.6803
 31
0.0
  0
LINE
  5
E8
330
1E
100
AcDbEntity
  8
1
  6
Continuous
 62
     7
100
AcDbLine
 10
67.82878100000001
 20
103.0484629999999
 30
0.0
 11
67.68489999999999
 21
102.834877
 31
0.0
  0
LINE
  5
E9
330
1E
100
AcDbEntity
  8
1
  6
Continuous
 62
     7
100
AcDbLine
 10
67.894914
 20
103.2976759999999
 30
0.0
 11
67.82878100000001
 21
103.0484629999999
 31
0.0
  0
LINE
  5
EA
330
1E
100
AcDbEntity
  8
1
  6
Continuous
 62
     7
100
AcDbLine
 10
67.56128499999999
 20
105.4039799999999
 30
0.0
 11
67.56040899999999
 21
105.388341
 31
0.0
  0
LINE
  5
EB
330
1E
100
AcDbEntity
  8
1
  6
Continuous
 62
     7
100
AcDbLine
 10
67.547317
 20
105.4927389999999
 30
0.0
 11
67.56128499999999
 21
105.4039799999999
 31
0.0
  0
LINE
  5
EC
330
1E
100
AcDbEntity
  8
1
  6
Continuous
 62
     7
100
AcDbLine
 10
67.502871
 20
105.570827
 30
0.0
 11
67.547317
 21
105.4927389999999
 31
0.0
  0
LINE
  5
ED
330
1E
100
AcDbEntity
  8
1
  6
Continuous
 62
     7
100
AcDbLine
 10
65.753033
 20
107.004778
 30
0.0
 11
65.68649599999999
 21
106.9576379999999
 31
0.0
  0
LINE
  5
EE
330
1E
100
AcDbEntity
  8
1
  6
Continuous
 62
     7
100
AcDbLine
 10
65.909683
 20
107.0648689999999
 30
0.0
 11
65.753033
 21
107.004778
 31
0.0
  0
LINE
  5
EF
330
1E
100
AcDbEntity
  8
1
  6
Continuous
 62
     7
100
AcDbLine
 10
66.077584
 20
107.06973
 30
0.0
 11
65.909683
 21
107.0648689999999
 31
0.0
  0
LINE
  5
F0
330
1E
100
AcDbEntity
  8
1
  6
Continuous
 62
     7
100
AcDbLine
 10
66.25034000000001
 20
107.0118949999999
 30
0.0
 11
66.077584
 21
107.06973
 31
0.0
  0
LINE
  5
F1
330
1E
100
AcDbEntity
  8
1
  6
Continuous
 62
     7
100
AcDbLine
 10
66.390916
 20
106.896009
 30
0.0
 11
66.25034000000001
 21
107.0118949999999
 31
0.0
  0
LINE
  5
F2
330
1E
100
AcDbEntity
  8
1
  6
Continuous
 62
     7
100
AcDbLine
 10
64.27481999999999
 20
105.691508
 30
0.0
 11
64.272966
 21
105.6759549999999
 31
0.0
  0
LINE
  5
F3
330
1E
100
AcDbEntity
  8
1
  6
Continuous
 62
     7
100
AcDbLine
 10
64.303988
 20
105.7764929999999
 30
0.0
 11
64.27481999999999
 21
105.691508
 31
0.0
  0
LINE
  5
F4
330
1E
100
AcDbEntity
  8
1
  6
Continuous
 62
     7
100
AcDbLine
 10
64.36131800000001
 20
105.845677
 30
0.0
 11
64.303988
 21
105.7764929999999
 31
0.0
  0
LINE
  5
F5
330
1E
100
AcDbEntity
  8
1
  6
Continuous
 62
     7
100
AcDbLine
 10
64.09375
 20
103.589573
 30
0.0
 11
64.093986
 21
103.6302159999999
 31
0.0
  0
LINE
  5
F6
330
1E
100
AcDbEntity
  8
1
  6
Continuous
 62
     7
100
AcDbLine
 10
64.114023
 20
103.5081649999999
 30
0.0
 11
64.09375
 21
103.589573
 31
0.0
  0
LINE
  5
F7
330
1E
100
AcDbEntity
  8
1
  6
Continuous
 62
     7
100
AcDbLine
 10
64.16015
 20
103.43798
 30
0.0
 11
64.114023
 21
103.5081649999999
 31
0.0
  0
LINE
  5
F8
330
1E
100
AcDbEntity
  8
1
  6
Continuous
 62
     7
100
AcDbLine
 10
64.233411
 20
103.3837449999999
 30
0.0
 11
64.16015
 21
103.43798
 31
0.0
  0
LINE
  5
F9
330
1E
100
AcDbEntity
  8
1
  6
Continuous
 62
     7
100
AcDbLine
 10
64.321247
 20
103.3593769999999
 30
0.0
 11
64.233411
 21
103.3837449999999
 31
0.0
  0
LINE
  5
FA
330
1E
100
AcDbEntity
  8
1
  6
Continuous
 62
     7
100
AcDbLine
 10
66.929299
 20
128.6645429999999
 30
0.0
 11
66.75972699999999
 21
128.756082
 31
0.0
  0
LINE
  5
FB
330
1E
100
AcDbEntity
  8
1
  6
Continuous
 62
     7
100
AcDbLine
 10
67.070888
 20
128.586407
 30
0.0
 11
66.929299
 21
128.6645429999999
 31
0.0
  0
LINE
  5
FC
330
1E
100
AcDbEntity
  8
1
  6
Continuous
 62
     7
100
AcDbLine
 10
67.172568
 20
128.5293259999999
 30
0.0
 11
67.070888
 21
128.586407
 31
0.0
  0
LINE
  5
FD
330
1E
100
AcDbEntity
  8
1
  6
Continuous
 62
     7
100
AcDbLine
 10
67.236808
 20
128.492841
 30
0.0
 11
67.172568
 21
128.5293259999999
 31
0.0
  0
LINE
  5
FE
330
1E
100
AcDbEntity
  8
1
  6
Continuous
 62
     7
100
AcDbLine
 10
67.25972699999999
 20
128.479745
 30
0.0
 11
67.236808
 21
128.492841
 31
0.0
  0
LINE
  5
FF
330
1E
100
AcDbEntity
  8
1
  6
Continuous
 62
     7
100
AcDbLine
 10
48.59015499999999
 20
128.6645429999999
 30
0.0
 11
48.75972700000001
 21
128.756082
 31
0.0
  0
LINE
  5
100
330
1E
100
AcDbEntity
  8
1
  6
Continuous
 62
     7
100
AcDbLine
 10
48.44856599999999
 20
128.586407
 30
0.0
 11
48.59015499999999
 21
128.6645429999999
 31
0.0
  0
LINE
  5
101
330
1E
100
AcDbEntity
  8
1
  6
Continuous
 62
     7
100
AcDbLine
 10
48.34688599999999
 20
128.5293259999999
 30
0.0
 11
48.44856599999999
 21
128.586407
 31
0.0
  0
LINE
  5
102
330
1E
100
AcDbEntity
  8
1
  6
Continuous
 62
     7
100
AcDbLine
 10
48.282645
 20
128.492841
 30
0.0
 11
48.34688599999999
 21
128.5293259999999
 31
0.0
  0
LINE
  5
103
330
1E
100
AcDbEntity
  8
1
  6
Continuous
 62
     7
100
AcDbLine
 10
48.25972700000001
 20
128.479745
 30
0.0
 11
48.282645
 21
128.492841
 31
0.0
  0
LINE
  5
104
330
1E
100
AcDbEntity
  8
1
  6
Continuous
 62
     7
100
AcDbLine
 10
61.89812299999999
 20
108.1685669999999
 30
0.0
 11
61.537841
 21
108.212492
 31
0.0
  0
LINE
  5
105
330
1E
100
AcDbEntity
  8
1
  6
Continuous
 62
     7
100
AcDbLine
 10
62.07149699999999
 20
108.119761
 30
0.0
 11
61.89812299999999
 21
108.1685669999999
 31
0.0
  0
LINE
  5
106
330
1E
100
AcDbEntity
  8
1
  6
Continuous
 62
     7
100
AcDbLine
 10
62.205814
 20
108.049967
 30
0.0
 11
62.07149699999999
 21
108.119761
 31
0.0
  0
LINE
  5
107
330
1E
100
AcDbEntity
  8
1
  6
Continuous
 62
     7
100
AcDbLine
 10
61.752909
 20
108.115409
 30
0.0
 11
61.537841
 21
108.212492
 31
0.0
  0
LINE
  5
108
330
1E
100
AcDbEntity
  8
1
  6
Continuous
 62
     7
100
AcDbLine
 10
61.941729
 20
108.028451
 30
0.0
 11
61.752909
 21
108.115409
 31
0.0
  0
LINE
  5
109
330
1E
100
AcDbEntity
  8
1
  6
Continuous
 62
     7
100
AcDbLine
 10
62.02124699999999
 20
107.991028
 30
0.0
 11
61.941729
 21
108.028451
 31
0.0
  0
LINE
  5
10A
330
1E
100
AcDbEntity
  8
1
  6
Continuous
 62
     7
100
AcDbLine
 10
62.078661
 20
107.9641719999999
 30
0.0
 11
62.02124699999999
 21
107.991028
 31
0.0
  0
LINE
  5
10B
330
1E
100
AcDbEntity
  8
1
  6
Continuous
 62
     7
100
AcDbLine
 10
62.11319
 20
107.948333
 30
0.0
 11
62.078661
 21
107.9641719999999
 31
0.0
  0
LINE
  5
10C
330
1E
100
AcDbEntity
  8
1
  6
Continuous
 62
     7
100
AcDbLine
 10
62.124649
 20
107.943224
 30
0.0
 11
62.11319
 21
107.948333
 31
0.0
  0
LINE
  5
10D
330
1E
100
AcDbEntity
  8
1
  6
Continuous
 62
     7
100
AcDbLine
 10
65.48751800000001
 20
111.217987
 30
0.0
 11
65.609727
 21
111.979102
 31
0.0
  0
LINE
  5
10E
330
1E
100
AcDbEntity
  8
1
  6
Continuous
 62
     7
100
AcDbLine
 10
65.434452
 20
110.895055
 30
0.0
 11
65.48751800000001
 21
111.217987
 31
0.0
  0
LINE
  5
10F
330
1E
100
AcDbEntity
  8
1
  6
Continuous
 62
     7
100
AcDbLine
 10
65.415204
 20
110.7837639999999
 30
0.0
 11
65.434452
 21
110.895055
 31
0.0
  0
LINE
  5
110
330
1E
100
AcDbEntity
  8
1
  6
Continuous
 62
     7
100
AcDbLine
 10
65.410166
 20
110.7558999999999
 30
0.0
 11
65.415204
 21
110.7837639999999
 31
0.0
  0
LINE
  5
111
330
1E
100
AcDbEntity
  8
1
  6
Continuous
 62
     7
100
AcDbLine
 10
65.408445
 20
110.7466239999999
 30
0.0
 11
65.410166
 21
110.7558999999999
 31
0.0
  0
LINE
  5
112
330
1E
100
AcDbEntity
  8
1
  6
Continuous
 62
     7
100
AcDbLine
 10
65.43763
 20
111.3918919999999
 30
0.0
 11
65.35972700000001
 21
110.9265139999999
 31
0.0
  0
LINE
  5
113
330
1E
100
AcDbEntity
  8
1
  6
Continuous
 62
     7
100
AcDbLine
 10
65.609727
 20
111.9790939999999
 30
0.0
 11
65.43763
 21
111.3918919999999
 31
0.0
  0
LINE
  5
114
330
1E
100
AcDbEntity
  8
1
  6
Continuous
 62
     7
100
AcDbLine
 10
53.06212399999999
 20
132.3489229999999
 30
0.0
 11
54.259727
 21
132.5803209999999
 31
0.0
  0
LINE
  5
115
330
1E
100
AcDbEntity
  8
1
  6
Continuous
 62
     7
100
AcDbLine
 10
53.009727
 20
132.3352309999999
 30
0.0
 11
53.06212399999999
 21
132.3489229999999
 31
0.0
  0
LINE
  5
116
330
1E
100
AcDbEntity
  8
1
  6
Continuous
 62
     7
100
AcDbLine
 10
74.231267
 20
124.907531
 30
0.0
 11
75.262658
 21
123.4848479999999
 31
0.0
  0
LINE
  5
117
330
1E
100
AcDbEntity
  8
1
  6
Continuous
 62
     7
100
AcDbLine
 10
73.12558
 20
126.19508
 30
0.0
 11
74.231267
 21
124.907531
 31
0.0
  0
LINE
  5
118
330
1E
100
AcDbEntity
  8
1
  6
Continuous
 62
     7
100
AcDbLine
 10
41.288187
 20
124.907531
 30
0.0
 11
42.39387299999999
 21
126.19508
 31
0.0
  0
LINE
  5
119
330
1E
100
AcDbEntity
  8
1
  6
Continuous
 62
     7
100
AcDbLine
 10
40.256795
 20
123.4848479999999
 30
0.0
 11
41.288187
 21
124.907531
 31
0.0
  0
LINE
  5
11A
330
1E
100
AcDbEntity
  8
1
  6
Continuous
 62
     7
100
AcDbLine
 10
40.14068599999999
 20
123.245807
 30
0.0
 11
40.256795
 21
123.4848479999999
 31
0.0
  0
LINE
  5
11B
330
1E
100
AcDbEntity
  8
1
  6
Continuous
 62
     7
100
AcDbLine
 10
40.09163899999999
 20
122.984624
 30
0.0
 11
40.14068599999999
 21
123.245807
 31
0.0
  0
LINE
  5
11C
330
1E
100
AcDbEntity
  8
1
  6
Continuous
 62
     7
100
AcDbLine
 10
75.37876700000001
 20
123.245807
 30
0.0
 11
75.427815
 21
122.984624
 31
0.0
  0
LINE
  5
11D
330
1E
100
AcDbEntity
  8
1
  6
Continuous
 62
     7
100
AcDbLine
 10
75.262658
 20
123.4848479999999
 30
0.0
 11
75.37876700000001
 21
123.245807
 31
0.0
  0
LINE
  5
11E
330
1E
100
AcDbEntity
  8
1
  6
Continuous
 62
     7
100
AcDbLine
 10
70.070148
 20
128.8944159999999
 30
0.0
 11
70.30727399999999
 21
128.7202689999999
 31
0.0
  0
LINE
  5
11F
330
1E
100
AcDbEntity
  8
1
  6
Continuous
 62
     7
100
AcDbLine
 10
69.983728
 20
128.956614
 30
0.0
 11
70.070148
 21
128.8944159999999
 31
0.0
  0
LINE
  5
120
330
1E
100
AcDbEntity
  8
1
  6
Continuous
 62
     7
100
AcDbLine
 10
72.880971
 20
125.99157
 30
0.0
 11
72.759726
 21
125.880437
 31
0.0
  0
LINE
  5
121
330
1E
100
AcDbEntity
  8
1
  6
Continuous
 62
     7
100
AcDbLine
 10
72.98864899999999
 20
126.087353
 30
0.0
 11
72.880971
 21
125.99157
 31
0.0
  0
LINE
  5
122
330
1E
100
AcDbEntity
  8
1
  6
Continuous
 62
     7
100
AcDbLine
 10
73.08648999999999
 20
126.1695739999999
 30
0.0
 11
72.98864899999999
 21
126.087353
 31
0.0
  0
LINE
  5
123
330
1E
100
AcDbEntity
  8
1
  6
Continuous
 62
     7
100
AcDbLine
 10
73.125579
 20
126.1950789999999
 30
0.0
 11
73.08648999999999
 21
126.1695739999999
 31
0.0
  0
LINE
  5
124
330
1E
100
AcDbEntity
  8
1
  6
Continuous
 62
     7
100
AcDbLine
 10
45.44930599999999
 20
128.8944159999999
 30
0.0
 11
45.535726
 21
128.956614
 31
0.0
  0
LINE
  5
125
330
1E
100
AcDbEntity
  8
1
  6
Continuous
 62
     7
100
AcDbLine
 10
45.21218
 20
128.7202689999999
 30
0.0
 11
45.44930599999999
 21
128.8944159999999
 31
0.0
  0
LINE
  5
126
330
1E
100
AcDbEntity
  8
1
  6
Continuous
 62
     7
100
AcDbLine
 10
42.638482
 20
125.991571
 30
0.0
 11
42.759727
 21
125.8804379999999
 31
0.0
  0
LINE
  5
127
330
1E
100
AcDbEntity
  8
1
  6
Continuous
 62
     7
100
AcDbLine
 10
42.53080399999999
 20
126.087354
 30
0.0
 11
42.638482
 21
125.991571
 31
0.0
  0
LINE
  5
128
330
1E
100
AcDbEntity
  8
1
  6
Continuous
 62
     7
100
AcDbLine
 10
42.43296299999999
 20
126.1695749999999
 30
0.0
 11
42.53080399999999
 21
126.087354
 31
0.0
  0
LINE
  5
129
330
1E
100
AcDbEntity
  8
1
  6
Continuous
 62
     7
100
AcDbLine
 10
42.39387299999999
 20
126.19508
 30
0.0
 11
42.43296299999999
 21
126.1695749999999
 31
0.0
  0
LINE
  5
12A
330
1E
100
AcDbEntity
  8
1
  6
Continuous
 62
     7
100
AcDbLine
 10
39.68736099999999
 20
114.590412
 30
0.0
 11
39.64211799999999
 21
114.40725
 31
0.0
  0
LINE
  5
12B
330
1E
100
AcDbEntity
  8
1
  6
Continuous
 62
     7
100
AcDbLine
 10
39.797255
 20
114.743769
 30
0.0
 11
39.68736099999999
 21
114.590412
 31
0.0
  0
LINE
  5
12C
330
1E
100
AcDbEntity
  8
1
  6
Continuous
 62
     7
100
AcDbLine
 10
39.870084
 20
114.7903899999999
 30
0.0
 11
39.797255
 21
114.743769
 31
0.0
  0
LINE
  5
12D
330
1E
100
AcDbEntity
  8
1
  6
Continuous
 62
     7
100
AcDbLine
 10
50.02093
 20
131.391064
 30
0.0
 11
50.00972700000001
 21
131.398702
 31
0.0
  0
LINE
  5
12E
330
1E
100
AcDbEntity
  8
1
  6
Continuous
 62
     7
100
AcDbLine
 10
65.46476899999999
 20
131.368159
 30
0.0
 11
65.415417
 21
131.3345399999999
 31
0.0
  0
LINE
  5
12F
330
1E
100
AcDbEntity
  8
1
  6
Continuous
 62
     7
100
AcDbLine
 10
65.49852099999999
 20
131.391064
 30
0.0
 11
65.46476899999999
 21
131.368159
 31
0.0
  0
LINE
  5
130
330
1E
100
AcDbEntity
  8
1
  6
Continuous
 62
     7
100
AcDbLine
 10
65.50972699999999
 20
131.398702
 30
0.0
 11
65.49852099999999
 21
131.391064
 31
0.0
  0
LINE
  5
131
330
1E
100
AcDbEntity
  8
1
  6
Continuous
 62
     7
100
AcDbLine
 10
48.590986
 20
128.8072949999999
 30
0.0
 11
48.75972700000001
 21
128.8976179999999
 31
0.0
  0
LINE
  5
132
330
1E
100
AcDbEntity
  8
1
  6
Continuous
 62
     7
100
AcDbLine
 10
48.449169
 20
128.729702
 30
0.0
 11
48.590986
 21
128.8072949999999
 31
0.0
  0
LINE
  5
133
330
1E
100
AcDbEntity
  8
1
  6
Continuous
 62
     7
100
AcDbLine
 10
48.34717
 20
128.672933
 30
0.0
 11
48.449169
 21
128.729702
 31
0.0
  0
LINE
  5
134
330
1E
100
AcDbEntity
  8
1
  6
Continuous
 62
     7
100
AcDbLine
 10
48.282713
 20
128.63664
 30
0.0
 11
48.34717
 21
128.672933
 31
0.0
  0
LINE
  5
135
330
1E
100
AcDbEntity
  8
1
  6
Continuous
 62
     7
100
AcDbLine
 10
48.25972700000001
 20
128.623617
 30
0.0
 11
48.282713
 21
128.63664
 31
0.0
  0
LINE
  5
136
330
1E
100
AcDbEntity
  8
1
  6
Continuous
 62
     7
100
AcDbLine
 10
67.257958
 20
128.6246209999999
 30
0.0
 11
67.25972699999999
 21
128.623617
 31
0.0
  0
LINE
  5
137
330
1E
100
AcDbEntity
  8
1
  6
Continuous
 62
     7
100
AcDbLine
 10
67.215115
 20
128.6488529999999
 30
0.0
 11
67.257958
 21
128.6246209999999
 31
0.0
  0
LINE
  5
138
330
1E
100
AcDbEntity
  8
1
  6
Continuous
 62
     7
100
AcDbLine
 10
67.10626399999999
 20
128.7097699999999
 30
0.0
 11
67.215115
 21
128.6488529999999
 31
0.0
  0
LINE
  5
139
330
1E
100
AcDbEntity
  8
1
  6
Continuous
 62
     7
100
AcDbLine
 10
66.94403900000001
 20
128.798851
 30
0.0
 11
67.10626399999999
 21
128.7097699999999
 31
0.0
  0
LINE
  5
13A
330
1E
100
AcDbEntity
  8
1
  6
Continuous
 62
     7
100
AcDbLine
 10
66.75972699999999
 20
128.8976179999999
 30
0.0
 11
66.94403900000001
 21
128.798851
 31
0.0
  0
LINE
  5
13B
330
1E
100
AcDbEntity
  8
1
  6
Continuous
 62
     7
100
AcDbLine
 10
52.715697
 20
132.012132
 30
0.0
 11
52.81874399999999
 21
132.0310819999999
 31
0.0
  0
LINE
  5
13C
330
1E
100
AcDbEntity
  8
1
  6
Continuous
 62
     7
100
AcDbLine
 10
52.562427
 20
131.9479019999999
 30
0.0
 11
52.715697
 21
132.012132
 31
0.0
  0
LINE
  5
13D
330
1E
100
AcDbEntity
  8
1
  6
Continuous
 62
     7
100
AcDbLine
 10
52.346623
 20
131.831082
 30
0.0
 11
52.562427
 21
131.9479019999999
 31
0.0
  0
LINE
  5
13E
330
1E
100
AcDbEntity
  8
1
  6
Continuous
 62
     7
100
AcDbLine
 10
51.91971500000001
 20
131.9657729999999
 30
0.0
 11
52.17283
 21
131.831082
 31
0.0
  0
LINE
  5
13F
330
1E
100
AcDbEntity
  8
1
  6
Continuous
 62
     7
100
AcDbLine
 10
51.794958
 20
132.014752
 30
0.0
 11
51.91971500000001
 21
131.9657729999999
 31
0.0
  0
LINE
  5
140
330
1E
100
AcDbEntity
  8
1
  6
Continuous
 62
     7
100
AcDbLine
 10
51.70071
 20
132.0310819999999
 30
0.0
 11
51.794958
 21
132.014752
 31
0.0
  0
LINE
  5
141
330
1E
100
AcDbEntity
  8
1
  6
Continuous
 62
     7
100
AcDbLine
 10
63.724489
 20
132.014752
 30
0.0
 11
63.818744
 21
132.0310819999999
 31
0.0
  0
LINE
  5
142
330
1E
100
AcDbEntity
  8
1
  6
Continuous
 62
     7
100
AcDbLine
 10
63.599738
 20
131.9657729999999
 30
0.0
 11
63.724489
 21
132.014752
 31
0.0
  0
LINE
  5
143
330
1E
100
AcDbEntity
  8
1
  6
Continuous
 62
     7
100
AcDbLine
 10
63.346623
 20
131.831082
 30
0.0
 11
63.599738
 21
131.9657729999999
 31
0.0
  0
LINE
  5
144
330
1E
100
AcDbEntity
  8
1
  6
Continuous
 62
     7
100
AcDbLine
 10
62.919715
 20
131.9657729999999
 30
0.0
 11
63.17283
 21
131.831082
 31
0.0
  0
LINE
  5
145
330
1E
100
AcDbEntity
  8
1
  6
Continuous
 62
     7
100
AcDbLine
 10
62.79495799999999
 20
132.014752
 30
0.0
 11
62.919715
 21
131.9657729999999
 31
0.0
  0
LINE
  5
146
330
1E
100
AcDbEntity
  8
1
  6
Continuous
 62
     7
100
AcDbLine
 10
62.70071
 20
132.0310819999999
 30
0.0
 11
62.79495799999999
 21
132.014752
 31
0.0
  0
LINE
  5
147
330
1E
100
AcDbEntity
  8
1
  6
Continuous
 62
     7
100
AcDbLine
 10
65.40957
 20
132.3798849999999
 30
0.0
 11
65.40972700000001
 21
132.381082
 31
0.0
  0
LINE
  5
148
330
1E
100
AcDbEntity
  8
1
  6
Continuous
 62
     7
100
AcDbLine
 10
65.400453
 20
132.3074679999999
 30
0.0
 11
65.40957
 21
132.3798849999999
 31
0.0
  0
LINE
  5
149
330
1E
100
AcDbEntity
  8
1
  6
Continuous
 62
     7
100
AcDbLine
 10
65.381078
 20
132.131082
 30
0.0
 11
65.400453
 21
132.3074679999999
 31
0.0
  0
LINE
  5
14A
330
1E
100
AcDbEntity
  8
1
  6
Continuous
 62
     7
100
AcDbLine
 10
59.91528800000001
 20
137.123486
 30
0.0
 11
59.848188
 21
137.131082
 31
0.0
  0
LINE
  5
14B
330
1E
100
AcDbEntity
  8
1
  6
Continuous
 62
     7
100
AcDbLine
 10
59.980349
 20
137.100928
 30
0.0
 11
59.91528800000001
 21
137.123486
 31
0.0
  0
LINE
  5
14C
330
1E
100
AcDbEntity
  8
1
  6
Continuous
 62
     7
100
AcDbLine
 10
60.04139399999999
 20
137.0640939999999
 30
0.0
 11
59.980349
 21
137.100928
 31
0.0
  0
LINE
  5
14D
330
1E
100
AcDbEntity
  8
1
  6
Continuous
 62
     7
100
AcDbLine
 10
60.09656899999999
 20
137.014104
 30
0.0
 11
60.04139399999999
 21
137.0640939999999
 31
0.0
  0
LINE
  5
14E
330
1E
100
AcDbEntity
  8
1
  6
Continuous
 62
     7
100
AcDbLine
 10
60.144197
 20
136.952476
 30
0.0
 11
60.09656899999999
 21
137.014104
 31
0.0
  0
LINE
  5
14F
330
1E
100
AcDbEntity
  8
1
  6
Continuous
 62
     7
100
AcDbLine
 10
60.18283100000001
 20
136.881082
 30
0.0
 11
60.144197
 21
136.952476
 31
0.0
  0
LINE
  5
150
330
1E
100
AcDbEntity
  8
1
  6
Continuous
 62
     7
100
AcDbLine
 10
60.21129699999999
 20
136.8020919999999
 30
0.0
 11
60.18283100000001
 21
136.881082
 31
0.0
  0
LINE
  5
151
330
1E
100
AcDbEntity
  8
1
  6
Continuous
 62
     7
100
AcDbLine
 10
60.22873
 20
136.717906
 30
0.0
 11
60.21129699999999
 21
136.8020919999999
 31
0.0
  0
LINE
  5
152
330
1E
100
AcDbEntity
  8
1
  6
Continuous
 62
     7
100
AcDbLine
 10
60.234601
 20
136.631082
 30
0.0
 11
60.22873
 21
136.717906
 31
0.0
  0
LINE
  5
153
330
1E
100
AcDbEntity
  8
1
  6
Continuous
 62
     7
100
AcDbLine
 10
70.894642
 20
128.264591
 30
0.0
 11
70.30519100000001
 21
128.722204
 31
0.0
  0
LINE
  5
154
330
1E
100
AcDbEntity
  8
1
  6
Continuous
 62
     7
100
AcDbLine
 10
71.619937
 20
127.649785
 30
0.0
 11
70.894642
 21
128.264591
 31
0.0
  0
LINE
  5
155
330
1E
100
AcDbEntity
  8
1
  6
Continuous
 62
     7
100
AcDbLine
 10
72.37301999999999
 20
126.939712
 30
0.0
 11
71.619937
 21
127.649785
 31
0.0
  0
LINE
  5
156
330
1E
100
AcDbEntity
  8
1
  6
Continuous
 62
     7
100
AcDbLine
 10
73.09370699999999
 20
126.1751889999999
 30
0.0
 11
72.37301999999999
 21
126.939712
 31
0.0
  0
LINE
  5
157
330
1E
100
AcDbEntity
  8
1
  6
Continuous
 62
     7
100
AcDbLine
 10
43.146434
 20
126.939712
 30
0.0
 11
42.42574699999999
 21
126.1751889999999
 31
0.0
  0
LINE
  5
158
330
1E
100
AcDbEntity
  8
1
  6
Continuous
 62
     7
100
AcDbLine
 10
43.899517
 20
127.649785
 30
0.0
 11
43.146434
 21
126.939712
 31
0.0
  0
LINE
  5
159
330
1E
100
AcDbEntity
  8
1
  6
Continuous
 62
     7
100
AcDbLine
 10
44.624811
 20
128.264591
 30
0.0
 11
43.899517
 21
127.649785
 31
0.0
  0
LINE
  5
15A
330
1E
100
AcDbEntity
  8
1
  6
Continuous
 62
     7
100
AcDbLine
 10
45.214263
 20
128.722204
 30
0.0
 11
44.624811
 21
128.264591
 31
0.0
  0
LINE
  5
15B
330
1E
100
AcDbEntity
  8
1
  6
Continuous
 62
     7
100
AcDbLine
 10
74.944381
 20
114.881082
 30
0.0
 11
74.877335
 21
114.881082
 31
0.0
  0
LINE
  5
15C
330
1E
100
AcDbEntity
  8
1
  6
Continuous
 62
     7
100
AcDbLine
 10
75.00844100000001
 20
114.881082
 30
0.0
 11
74.944381
 21
114.881082
 31
0.0
  0
LINE
  5
15D
330
1E
100
AcDbEntity
  8
1
  6
Continuous
 62
     7
100
AcDbLine
 10
75.119518
 20
114.881082
 30
0.0
 11
75.00844100000001
 21
114.881082
 31
0.0
  0
LINE
  5
15E
330
1E
100
AcDbEntity
  8
1
  6
Continuous
 62
     7
100
AcDbLine
 10
75.339311
 20
114.880197
 30
0.0
 11
75.119518
 21
114.881082
 31
0.0
  0
LINE
  5
15F
330
1E
100
AcDbEntity
  8
1
  6
Continuous
 62
     7
100
AcDbLine
 10
75.50618199999999
 20
114.854877
 30
0.0
 11
75.339311
 21
114.880197
 31
0.0
  0
LINE
  5
160
330
1E
100
AcDbEntity
  8
1
  6
Continuous
 62
     7
100
AcDbLine
 10
75.685979
 20
114.768322
 30
0.0
 11
75.50618199999999
 21
114.854877
 31
0.0
  0
LINE
  5
161
330
1E
100
AcDbEntity
  8
1
  6
Continuous
 62
     7
100
AcDbLine
 10
75.76276
 20
114.6965449999999
 30
0.0
 11
75.685979
 21
114.768322
 31
0.0
  0
LINE
  5
162
330
1E
100
AcDbEntity
  8
1
  6
Continuous
 62
     7
100
AcDbLine
 10
75.822216
 20
114.608321
 30
0.0
 11
75.76276
 21
114.6965449999999
 31
0.0
  0
LINE
  5
163
330
1E
100
AcDbEntity
  8
1
  6
Continuous
 62
     7
100
AcDbLine
 10
75.86089399999998
 20
114.509507
 30
0.0
 11
75.822216
 21
114.608321
 31
0.0
  0
LINE
  5
164
330
1E
100
AcDbEntity
  8
1
  6
Continuous
 62
     7
100
AcDbLine
 10
75.87733599999999
 20
114.40725
 30
0.0
 11
75.86089399999998
 21
114.509507
 31
0.0
  0
LINE
  5
165
330
1E
100
AcDbEntity
  8
1
  6
Continuous
 62
     7
100
AcDbLine
 10
39.915725
 20
114.8265429999999
 30
0.0
 11
39.86634799999999
 21
114.796227
 31
0.0
  0
LINE
  5
166
330
1E
100
AcDbEntity
  8
1
  6
Continuous
 62
     7
100
AcDbLine
 10
39.984303
 20
114.853634
 30
0.0
 11
39.915725
 21
114.8265429999999
 31
0.0
  0
LINE
  5
167
330
1E
100
AcDbEntity
  8
1
  6
Continuous
 62
     7
100
AcDbLine
 10
40.112445
 20
114.876175
 30
0.0
 11
39.984303
 21
114.853634
 31
0.0
  0
LINE
  5
168
330
1E
100
AcDbEntity
  8
1
  6
Continuous
 62
     7
100
AcDbLine
 10
40.34717299999999
 20
114.8805139999999
 30
0.0
 11
40.112445
 21
114.876175
 31
0.0
  0
LINE
  5
169
330
1E
100
AcDbEntity
  8
1
  6
Continuous
 62
     7
100
AcDbLine
 10
74.509727
 20
114.881082
 30
0.0
 11
74.460759
 21
115.4407889999999
 31
0.0
  0
LINE
  5
16A
330
1E
100
AcDbEntity
  8
1
  6
Continuous
 62
     7
100
AcDbLine
 10
71.058695
 20
115.4407889999999
 30
0.0
 11
71.00972699999999
 21
114.881082
 31
0.0
  0
ARC
  5
16B
330
1E
100
AcDbEntity
  8
1
  6
Continuous
 62
     7
100
AcDbCircle
 10
73.813232
 20
115.384138
 30
0.0
 40
0.65
100
AcDbArc
 50
5.0
 51
74.11915
  0
ARC
  5
16C
330
1E
100
AcDbEntity
  8
1
  6
Continuous
 62
     7
100
AcDbCircle
 10
71.706221
 20
115.384138
 30
0.0
 40
0.65
100
AcDbArc
 50
105.88085
 51
175.0
  0
LINE
  5
16D
330
1E
100
AcDbEntity
  8
1
  6
Continuous
 62
     7
100
AcDbLine
 10
44.509727
 20
114.881082
 30
0.0
 11
44.460759
 21
115.4407889999999
 31
0.0
  0
LINE
  5
16E
330
1E
100
AcDbEntity
  8
1
  6
Continuous
 62
     7
100
AcDbLine
 10
41.05869499999999
 20
115.4407889999999
 30
0.0
 11
41.009727
 21
114.881082
 31
0.0
  0
ARC
  5
16F
330
1E
100
AcDbEntity
  8
1
  6
Continuous
 62
     7
100
AcDbCircle
 10
43.81323199999999
 20
115.384138
 30
0.0
 40
0.65
100
AcDbArc
 50
5.0
 51
74.11915
  0
ARC
  5
170
330
1E
100
AcDbEntity
  8
1
  6
Continuous
 62
     7
100
AcDbCircle
 10
41.706221
 20
115.384138
 30
0.0
 40
0.65
100
AcDbArc
 50
105.88085
 51
175.0
  0
ARC
  5
171
330
1E
100
AcDbEntity
  8
1
  6
Continuous
 62
     7
100
AcDbCircle
 10
54.50972700000001
 20
132.881082
 30
0.0
 40
0.25
100
AcDbArc
 50
90.0
 51
180.0
  0
LINE
  5
172
330
1E
100
AcDbEntity
  8
1
  6
Continuous
 62
     7
100
AcDbLine
 10
54.259727
 20
132.881082
 30
0.0
 11
54.259727
 21
132.131082
 31
0.0
  0
ARC
  5
173
330
1E
100
AcDbEntity
  8
1
  6
Continuous
 62
     7
100
AcDbCircle
 10
55.875843
 20
136.631082
 30
0.0
 40
0.5
100
AcDbArc
 50
90.0
 51
180.0
  0
LINE
  5
174
330
1E
100
AcDbEntity
  8
1
  6
Continuous
 62
     7
100
AcDbLine
 10
55.375843
 20
136.631082
 30
0.0
 11
55.375843
 21
133.131082
 31
0.0
  0
LINE
  5
175
330
1E
100
AcDbEntity
  8
1
  6
Continuous
 62
     7
100
AcDbLine
 10
60.00972700000001
 20
125.207131
 30
0.0
 11
60.00972700000001
 21
125.286633
 31
0.0
  0
LINE
  5
176
330
1E
100
AcDbEntity
  8
1
  6
Continuous
 62
     7
100
AcDbLine
 10
55.509727
 20
125.286633
 30
0.0
 11
55.509727
 21
125.207131
 31
0.0
  0
ARC
  5
177
330
1E
100
AcDbEntity
  8
1
  6
Continuous
 62
     7
100
AcDbCircle
 10
65.159727
 20
132.881082
 30
0.0
 40
0.25
100
AcDbArc
 50
0.0
 51
90.0
  0
LINE
  5
178
330
1E
100
AcDbEntity
  8
1
  6
Continuous
 62
     7
100
AcDbLine
 10
65.40972700000001
 20
132.381082
 30
0.0
 11
65.40972700000001
 21
132.881082
 31
0.0
  0
ARC
  5
179
330
1E
100
AcDbEntity
  8
1
  6
Continuous
 62
     7
100
AcDbCircle
 10
61.812233
 20
136.631082
 30
0.0
 40
0.5
100
AcDbArc
 50
0.0
 51
90.0
  0
LINE
  5
17A
330
1E
100
AcDbEntity
  8
1
  6
Continuous
 62
     7
100
AcDbLine
 10
62.31223299999999
 20
133.131082
 30
0.0
 11
62.31223299999999
 21
136.631082
 31
0.0
  0
ARC
  5
17B
330
1E
100
AcDbEntity
  8
1
  6
Continuous
 62
     7
100
AcDbCircle
 10
47.224567
 20
104.161128
 30
0.0
 40
0.5
100
AcDbArc
 50
5.0
 51
60.68999
  0
ARC
  5
17C
330
1E
100
AcDbEntity
  8
1
  6
Continuous
 62
     7
100
AcDbCircle
 10
51.294886
 20
104.161128
 30
0.0
 40
0.5
100
AcDbArc
 50
119.292113
 51
175.0
  0
LINE
  5
17D
330
1E
100
AcDbEntity
  8
1
  6
Continuous
 62
     7
100
AcDbLine
 10
64.009727
 20
132.0310819999999
 30
0.0
 11
64.009727
 21
132.531082
 31
0.0
  0
LINE
  5
17E
330
1E
100
AcDbEntity
  8
1
  6
Continuous
 62
     7
100
AcDbLine
 10
62.50972700000001
 20
132.531082
 30
0.0
 11
62.50972700000001
 21
132.0310819999999
 31
0.0
  0
LINE
  5
17F
330
1E
100
AcDbEntity
  8
1
  6
Continuous
 62
     7
100
AcDbLine
 10
53.009727
 20
132.0310819999999
 30
0.0
 11
53.009727
 21
132.531082
 31
0.0
  0
LINE
  5
180
330
1E
100
AcDbEntity
  8
1
  6
Continuous
 62
     7
100
AcDbLine
 10
51.509727
 20
132.531082
 30
0.0
 11
51.509727
 21
132.0310819999999
 31
0.0
  0
LINE
  5
181
330
1E
100
AcDbEntity
  8
1
  6
Continuous
 62
     7
100
AcDbLine
 10
64.009727
 20
132.531082
 30
0.0
 11
63.909727
 21
132.631082
 31
0.0
  0
LINE
  5
182
330
1E
100
AcDbEntity
  8
1
  6
Continuous
 62
     7
100
AcDbLine
 10
62.60972699999999
 20
132.631082
 30
0.0
 11
62.50972700000001
 21
132.531082
 31
0.0
  0
LINE
  5
183
330
1E
100
AcDbEntity
  8
1
  6
Continuous
 62
     7
100
AcDbLine
 10
53.009727
 20
132.531082
 30
0.0
 11
52.90972700000001
 21
132.631082
 31
0.0
  0
LINE
  5
184
330
1E
100
AcDbEntity
  8
1
  6
Continuous
 62
     7
100
AcDbLine
 10
51.609727
 20
132.631082
 30
0.0
 11
51.509727
 21
132.531082
 31
0.0
  0
LINE
  5
185
330
1E
100
AcDbEntity
  8
1
  6
Continuous
 62
     7
100
AcDbLine
 10
72.509727
 20
116.167171
 30
0.0
 11
71.65972700000001
 21
116.0373989999999
 31
0.0
  0
LINE
  5
186
330
1E
100
AcDbEntity
  8
1
  6
Continuous
 62
     7
100
AcDbLine
 10
72.509727
 20
116.0373989999999
 30
0.0
 11
72.509727
 21
116.167171
 31
0.0
  0
LINE
  5
187
330
1E
100
AcDbEntity
  8
1
  6
Continuous
 62
     7
100
AcDbLine
 10
73.00972699999999
 20
116.0373989999999
 30
0.0
 11
72.509727
 21
116.0373989999999
 31
0.0
  0
LINE
  5
188
330
1E
100
AcDbEntity
  8
1
  6
Continuous
 62
     7
100
AcDbLine
 10
73.00972699999999
 20
116.167171
 30
0.0
 11
73.00972699999999
 21
116.0373989999999
 31
0.0
  0
LINE
  5
189
330
1E
100
AcDbEntity
  8
1
  6
Continuous
 62
     7
100
AcDbLine
 10
73.859727
 20
116.0373989999999
 30
0.0
 11
73.00972699999999
 21
116.167171
 31
0.0
  0
LINE
  5
18A
330
1E
100
AcDbEntity
  8
1
  6
Continuous
 62
     7
100
AcDbLine
 10
73.859727
 20
116.0445669999999
 30
0.0
 11
73.859727
 21
116.0373989999999
 31
0.0
  0
LINE
  5
18B
330
1E
100
AcDbEntity
  8
1
  6
Continuous
 62
     7
100
AcDbLine
 10
71.65972700000001
 20
116.0373989999999
 30
0.0
 11
71.65972700000001
 21
116.0445669999999
 31
0.0
  0
LINE
  5
18C
330
1E
100
AcDbEntity
  8
1
  6
Continuous
 62
     7
100
AcDbLine
 10
42.50972700000001
 20
116.167171
 30
0.0
 11
41.659727
 21
116.0373989999999
 31
0.0
  0
LINE
  5
18D
330
1E
100
AcDbEntity
  8
1
  6
Continuous
 62
     7
100
AcDbLine
 10
43.85972699999999
 20
116.0373989999999
 30
0.0
 11
43.009727
 21
116.167171
 31
0.0
  0
LINE
  5
18E
330
1E
100
AcDbEntity
  8
1
  6
Continuous
 62
     7
100
AcDbLine
 10
43.85972699999999
 20
116.0445669999999
 30
0.0
 11
43.85972699999999
 21
116.0373989999999
 31
0.0
  0
LINE
  5
18F
330
1E
100
AcDbEntity
  8
1
  6
Continuous
 62
     7
100
AcDbLine
 10
41.659727
 20
116.0373989999999
 30
0.0
 11
41.659727
 21
116.0445669999999
 31
0.0
  0
LINE
  5
190
330
1E
100
AcDbEntity
  8
1
  6
Continuous
 62
     7
100
AcDbLine
 10
60.170674
 20
133.131082
 30
0.0
 11
54.50972700000001
 21
133.131082
 31
0.0
  0
LINE
  5
191
330
1E
100
AcDbEntity
  8
1
  6
Continuous
 62
     7
100
AcDbLine
 10
54.259727
 20
132.131082
 30
0.0
 11
56.009727
 21
132.131082
 31
0.0
  0
LINE
  5
192
330
1E
100
AcDbEntity
  8
1
  6
Continuous
 62
     7
100
AcDbLine
 10
56.74606999999999
 20
132.131082
 30
0.0
 11
58.773384
 21
132.131082
 31
0.0
  0
LINE
  5
193
330
1E
100
AcDbEntity
  8
1
  6
Continuous
 62
     7
100
AcDbLine
 10
59.50972700000001
 20
132.131082
 30
0.0
 11
60.356131
 21
132.131082
 31
0.0
  0
LINE
  5
194
330
1E
100
AcDbEntity
  8
1
  6
Continuous
 62
     7
100
AcDbLine
 10
57.58295
 20
137.131082
 30
0.0
 11
55.875843
 21
137.131082
 31
0.0
  0
LINE
  5
195
330
1E
100
AcDbEntity
  8
1
  6
Continuous
 62
     7
100
AcDbLine
 10
60.170674
 20
133.131082
 30
0.0
 11
60.912503
 21
133.131082
 31
0.0
  0
LINE
  5
196
330
1E
100
AcDbEntity
  8
1
  6
Continuous
 62
     7
100
AcDbLine
 10
60.912503
 20
132.131082
 30
0.0
 11
60.356131
 21
132.131082
 31
0.0
  0
LINE
  5
197
330
1E
100
AcDbEntity
  8
1
  6
Continuous
 62
     7
100
AcDbLine
 10
55.959727
 20
125.531082
 30
0.0
 11
59.559727
 21
125.531082
 31
0.0
  0
LINE
  5
198
330
1E
100
AcDbEntity
  8
1
  6
Continuous
 62
     7
100
AcDbLine
 10
59.881047
 20
124.531082
 30
0.0
 11
59.881047
 21
125.284933
 31
0.0
  0
LINE
  5
199
330
1E
100
AcDbEntity
  8
1
  6
Continuous
 62
     7
100
AcDbLine
 10
55.638406
 20
125.284933
 30
0.0
 11
55.638406
 21
124.531082
 31
0.0
  0
LINE
  5
19A
330
1E
100
AcDbEntity
  8
1
  6
Continuous
 62
     7
100
AcDbLine
 10
55.638406
 20
124.531082
 30
0.0
 11
59.881047
 21
124.531082
 31
0.0
  0
LINE
  5
19B
330
1E
100
AcDbEntity
  8
1
  6
Continuous
 62
     7
100
AcDbLine
 10
64.52637299999999
 20
133.131082
 30
0.0
 11
65.01671
 21
133.131082
 31
0.0
  0
LINE
  5
19C
330
1E
100
AcDbEntity
  8
1
  6
Continuous
 62
     7
100
AcDbLine
 10
64.52637299999999
 20
132.131082
 30
0.0
 11
65.26187799999999
 21
132.131082
 31
0.0
  0
LINE
  5
19D
330
1E
100
AcDbEntity
  8
1
  6
Continuous
 62
     7
100
AcDbLine
 10
64.52637299999999
 20
133.131082
 30
0.0
 11
60.912503
 21
133.131082
 31
0.0
  0
LINE
  5
19E
330
1E
100
AcDbEntity
  8
1
  6
Continuous
 62
     7
100
AcDbLine
 10
60.912503
 20
132.131082
 30
0.0
 11
62.50972700000001
 21
132.131082
 31
0.0
  0
LINE
  5
19F
330
1E
100
AcDbEntity
  8
1
  6
Continuous
 62
     7
100
AcDbLine
 10
64.009727
 20
132.131082
 30
0.0
 11
64.52637299999999
 21
132.131082
 31
0.0
  0
LINE
  5
1A0
330
1E
100
AcDbEntity
  8
1
  6
Continuous
 62
     7
100
AcDbLine
 10
59.848188
 20
137.131082
 30
0.0
 11
57.58295
 21
137.131082
 31
0.0
  0
LINE
  5
1A1
330
1E
100
AcDbEntity
  8
1
  6
Continuous
 62
     7
100
AcDbLine
 10
60.234601
 20
133.131082
 30
0.0
 11
60.234601
 21
136.631082
 31
0.0
  0
LINE
  5
1A2
330
1E
100
AcDbEntity
  8
1
  6
Continuous
 62
     7
100
AcDbLine
 10
59.340866
 20
117.736148
 30
0.0
 11
59.340866
 21
124.531082
 31
0.0
  0
LINE
  5
1A3
330
1E
100
AcDbEntity
  8
1
  6
Continuous
 62
     7
100
AcDbLine
 10
56.178588
 20
124.531082
 30
0.0
 11
56.178588
 21
117.736148
 31
0.0
  0
LINE
  5
1A4
330
1E
100
AcDbEntity
  8
1
  6
Continuous
 62
     7
100
AcDbLine
 10
65.01671
 20
133.131082
 30
0.0
 11
65.159727
 21
133.131082
 31
0.0
  0
LINE
  5
1A5
330
1E
100
AcDbEntity
  8
1
  6
Continuous
 62
     7
100
AcDbLine
 10
65.26187799999999
 20
132.131082
 30
0.0
 11
65.381078
 21
132.131082
 31
0.0
  0
LINE
  5
1A6
330
1E
100
AcDbEntity
  8
1
  6
Continuous
 62
     7
100
AcDbLine
 10
53.784727
 20
120.1992999999999
 30
0.0
 11
53.784727
 21
123.0628639999999
 31
0.0
  0
ARC
  5
1A7
330
1E
100
AcDbEntity
  8
1
  6
Continuous
 62
     7
100
AcDbCircle
 10
57.759727
 20
121.631082
 30
0.0
 40
4.224999999999999
100
AcDbArc
 50
120.138215
 51
160.191144
  0
ARC
  5
1A8
330
1E
100
AcDbEntity
  8
1
  6
Continuous
 62
     7
100
AcDbCircle
 10
57.759727
 20
121.631082
 30
0.0
 40
4.224999999999999
100
AcDbArc
 50
199.808856
 51
209.7068249999999
  0
ARC
  5
1A9
330
1E
100
AcDbEntity
  8
1
  6
Continuous
 62
     7
100
AcDbCircle
 10
57.759727
 20
121.631082
 30
0.0
 40
4.224999999999999
100
AcDbArc
 50
330.293175
 51
59.86178500000001
  0
LINE
  5
1AA
330
1E
100
AcDbEntity
  8
1
  6
Continuous
 62
     7
100
AcDbLine
 10
61.76855899999999
 20
137.131082
 30
0.0
 11
59.848188
 21
137.131082
 31
0.0
  0
LINE
  5
1AB
330
1E
100
AcDbEntity
  8
1
  6
Continuous
 62
     7
100
AcDbLine
 10
61.76855899999999
 20
137.131082
 30
0.0
 11
61.812233
 21
137.131082
 31
0.0
  0
LINE
  5
1AC
330
1E
100
AcDbEntity
  8
1
  6
Continuous
 62
     7
100
AcDbLine
 10
47.759727
 20
103.781082
 30
0.0
 11
47.722664
 21
104.204706
 31
0.0
  0
LINE
  5
1AD
330
1E
100
AcDbEntity
  8
1
  6
Continuous
 62
     7
100
AcDbLine
 10
47.46526099999999
 20
104.581641
 30
0.0
 11
47.32618099999999
 21
104.641136
 31
0.0
  0
LINE
  5
1AE
330
1E
100
AcDbEntity
  8
1
  6
Continuous
 62
     7
100
AcDbLine
 10
47.46933499999999
 20
104.5971199999999
 30
0.0
 11
47.46526099999999
 21
104.581641
 31
0.0
  0
LINE
  5
1AF
330
1E
100
AcDbEntity
  8
1
  6
Continuous
 62
     7
100
AcDbLine
 10
47.32618099999999
 20
104.641136
 30
0.0
 11
46.951087
 21
104.707883
 31
0.0
  0
LINE
  5
1B0
330
1E
100
AcDbEntity
  8
1
  6
Continuous
 62
     7
100
AcDbLine
 10
50.79678900000001
 20
104.204706
 30
0.0
 11
50.75972700000001
 21
103.781082
 31
0.0
  0
LINE
  5
1B1
330
1E
100
AcDbEntity
  8
1
  6
Continuous
 62
     7
100
AcDbLine
 10
51.054192
 20
104.581641
 30
0.0
 11
51.05025499999999
 21
104.5971969999999
 31
0.0
  0
LINE
  5
1B2
330
1E
100
AcDbEntity
  8
1
  6
Continuous
 62
     7
100
AcDbLine
 10
51.193273
 20
104.641136
 30
0.0
 11
51.054192
 21
104.581641
 31
0.0
  0
LINE
  5
1B3
330
1E
100
AcDbEntity
  8
1
  6
Continuous
 62
     7
100
AcDbLine
 10
51.564291
 20
104.7071579999999
 30
0.0
 11
51.193273
 21
104.641136
 31
0.0
  0
LINE
  5
1B4
330
1E
100
AcDbEntity
  8
1
  6
Continuous
 62
     7
100
AcDbLine
 10
63.818744
 20
132.0310819999999
 30
0.0
 11
65.009727
 21
132.0310819999999
 31
0.0
  0
LINE
  5
1B5
330
1E
100
AcDbEntity
  8
1
  6
Continuous
 62
     7
100
AcDbLine
 10
59.50972700000001
 20
132.0310819999999
 30
0.0
 11
62.70071
 21
132.0310819999999
 31
0.0
  0
LINE
  5
1B6
330
1E
100
AcDbEntity
  8
1
  6
Continuous
 62
     7
100
AcDbLine
 10
63.17283
 20
131.831082
 30
0.0
 11
63.346623
 21
131.831082
 31
0.0
  0
LINE
  5
1B7
330
1E
100
AcDbEntity
  8
1
  6
Continuous
 62
     7
100
AcDbLine
 10
64.009727
 20
132.531082
 30
0.0
 11
62.50972700000001
 21
132.531082
 31
0.0
  0
LINE
  5
1B8
330
1E
100
AcDbEntity
  8
1
  6
Continuous
 62
     7
100
AcDbLine
 10
52.81874399999999
 20
132.0310819999999
 30
0.0
 11
56.009727
 21
132.0310819999999
 31
0.0
  0
LINE
  5
1B9
330
1E
100
AcDbEntity
  8
1
  6
Continuous
 62
     7
100
AcDbLine
 10
50.509727
 20
132.0310819999999
 30
0.0
 11
51.70071
 21
132.0310819999999
 31
0.0
  0
LINE
  5
1BA
330
1E
100
AcDbEntity
  8
1
  6
Continuous
 62
     7
100
AcDbLine
 10
52.17283
 20
131.831082
 30
0.0
 11
52.346623
 21
131.831082
 31
0.0
  0
LINE
  5
1BB
330
1E
100
AcDbEntity
  8
1
  6
Continuous
 62
     7
100
AcDbLine
 10
53.009727
 20
132.531082
 30
0.0
 11
51.509727
 21
132.531082
 31
0.0
  0
ARC
  5
1BC
330
1E
100
AcDbEntity
  8
1
  6
Continuous
 62
     7
100
AcDbCircle
 10
57.759727
 20
111.8810819999999
 30
0.0
 40
19.25
100
AcDbArc
 50
62.12575699999999
 51
84.784091
  0
LINE
  5
1BD
330
1E
100
AcDbEntity
  8
1
  6
Continuous
 62
     7
100
AcDbLine
 10
59.50972700000001
 20
131.0513709999999
 30
0.0
 11
59.50972700000001
 21
131.781082
 31
0.0
  0
LINE
  5
1BE
330
1E
100
AcDbEntity
  8
1
  6
Continuous
 62
     7
100
AcDbLine
 10
56.009727
 20
131.781082
 30
0.0
 11
56.009727
 21
131.0513709999999
 31
0.0
  0
ARC
  5
1BF
330
1E
100
AcDbEntity
  8
1
  6
Continuous
 62
     7
100
AcDbCircle
 10
57.759727
 20
111.8810819999999
 30
0.0
 40
19.25
100
AcDbArc
 50
95.21590899999999
 51
117.874243
  0
LINE
  5
1C0
330
1E
100
AcDbEntity
  8
1
  6
Continuous
 62
     7
100
AcDbLine
 10
65.50972699999999
 20
131.781082
 30
0.0
 11
65.50972699999999
 21
131.398702
 31
0.0
  0
LINE
  5
1C1
330
1E
100
AcDbEntity
  8
1
  6
Continuous
 62
     7
100
AcDbLine
 10
50.00972700000001
 20
131.781082
 30
0.0
 11
50.00972700000001
 21
131.398702
 31
0.0
  0
ARC
  5
1C2
330
1E
100
AcDbEntity
  8
1
  6
Continuous
 62
     7
100
AcDbCircle
 10
57.759727
 20
111.8810819999999
 30
0.0
 40
21.0
100
AcDbArc
 50
63.95835
 51
68.34310699999999
  0
ARC
  5
1C3
330
1E
100
AcDbEntity
  8
1
  6
Continuous
 62
     7
100
AcDbCircle
 10
57.759727
 20
111.8810819999999
 30
0.0
 40
21.0
100
AcDbArc
 50
111.6568929999999
 51
116.04165
  0
LINE
  5
1C4
330
1E
100
AcDbEntity
  8
1
  6
Continuous
 62
     7
100
AcDbLine
 10
65.009727
 20
132.0310819999999
 30
0.0
 11
65.259727
 21
132.0310819999999
 31
0.0
  0
ARC
  5
1C5
330
1E
100
AcDbEntity
  8
1
  6
Continuous
 62
     7
100
AcDbCircle
 10
65.259727
 20
131.781082
 30
0.0
 40
0.25
100
AcDbArc
 50
0.0
 51
90.0
  0
ARC
  5
1C6
330
1E
100
AcDbEntity
  8
1
  6
Continuous
 62
     7
100
AcDbCircle
 10
50.259727
 20
131.781082
 30
0.0
 40
0.25
100
AcDbArc
 50
90.0
 51
180.0
  0
LINE
  5
1C7
330
1E
100
AcDbEntity
  8
1
  6
Continuous
 62
     7
100
AcDbLine
 10
50.259727
 20
132.0310819999999
 30
0.0
 11
50.509727
 21
132.0310819999999
 31
0.0
  0
LINE
  5
1C8
330
1E
100
AcDbEntity
  8
1
  6
Continuous
 62
     7
100
AcDbLine
 10
63.909727
 20
132.631082
 30
0.0
 11
62.60972699999999
 21
132.631082
 31
0.0
  0
LINE
  5
1C9
330
1E
100
AcDbEntity
  8
1
  6
Continuous
 62
     7
100
AcDbLine
 10
52.90972700000001
 20
132.631082
 30
0.0
 11
51.609727
 21
132.631082
 31
0.0
  0
LINE
  5
1CA
330
1E
100
AcDbEntity
  8
1
  6
Continuous
 62
     7
100
AcDbLine
 10
66.16172900000001
 20
129.2006909999999
 30
0.0
 11
66.16150799999999
 21
129.06176
 31
0.0
  0
LINE
  5
1CB
330
1E
100
AcDbEntity
  8
1
  6
Continuous
 62
     7
100
AcDbLine
 10
49.357374
 20
129.06148
 30
0.0
 11
49.357082
 21
129.200379
 31
0.0
  0
LINE
  5
1CC
330
1E
100
AcDbEntity
  8
1
  6
Continuous
 62
     7
100
AcDbLine
 10
59.50972700000001
 20
125.531082
 30
0.0
 11
59.50972700000001
 21
125.5540649999999
 31
0.0
  0
LINE
  5
1CD
330
1E
100
AcDbEntity
  8
1
  6
Continuous
 62
     7
100
AcDbLine
 10
56.009727
 20
125.5540649999999
 30
0.0
 11
56.009727
 21
125.531082
 31
0.0
  0
ARC
  5
1CE
330
1E
100
AcDbEntity
  8
1
  6
Continuous
 62
     7
100
AcDbCircle
 10
45.82677299999999
 20
128.550054
 30
0.0
 40
0.5
100
AcDbArc
 50
125.598049
 51
177.0
  0
ARC
  5
1CF
330
1E
100
AcDbEntity
  8
1
  6
Continuous
 62
     7
100
AcDbCircle
 10
69.69268000000001
 20
128.550054
 30
0.0
 40
0.5
100
AcDbArc
 50
3.0
 51
54.401951
  0
LINE
  5
1D0
330
1E
100
AcDbEntity
  8
1
  6
Continuous
 62
     7
100
AcDbLine
 10
39.64211799999999
 20
114.40725
 30
0.0
 11
39.509727
 21
111.8810819999999
 31
0.0
  0
LINE
  5
1D1
330
1E
100
AcDbEntity
  8
1
  6
Continuous
 62
     7
100
AcDbLine
 10
39.509727
 20
111.8810819999999
 30
0.0
 11
40.511099
 21
111.8810819999999
 31
0.0
  0
LINE
  5
1D2
330
1E
100
AcDbEntity
  8
1
  6
Continuous
 62
     7
100
AcDbLine
 10
48.209727
 20
116.381082
 30
0.0
 11
48.209727
 21
128.595148
 31
0.0
  0
ARC
  5
1D3
330
1E
100
AcDbEntity
  8
1
  6
Continuous
 62
     7
100
AcDbCircle
 10
57.759727
 20
116.381082
 30
0.0
 40
9.55
100
AcDbArc
 50
180.0
 51
208.112491
  0
LINE
  5
1D4
330
1E
100
AcDbEntity
  8
1
  6
Continuous
 62
     7
100
AcDbLine
 10
40.511099
 20
111.8810819999999
 30
0.0
 11
49.336396
 21
111.8810819999999
 31
0.0
  0
ARC
  5
1D5
330
1E
100
AcDbEntity
  8
1
  6
Continuous
 62
     7
100
AcDbCircle
 10
57.759727
 20
111.8810819999999
 30
0.0
 40
19.25
100
AcDbArc
 50
119.5713149999999
 51
119.7425689999999
  0
LINE
  5
1D6
330
1E
100
AcDbEntity
  8
1
  6
Continuous
 62
     7
100
AcDbLine
 10
44.609727
 20
114.881082
 30
0.0
 11
40.642119
 21
114.881082
 31
0.0
  0
LINE
  5
1D7
330
1E
100
AcDbEntity
  8
1
  6
Continuous
 62
     7
100
AcDbLine
 10
45.08420899999999
 20
114.381082
 30
0.0
 11
44.609727
 21
114.881082
 31
0.0
  0
LINE
  5
1D8
330
1E
100
AcDbEntity
  8
1
  6
Continuous
 62
     7
100
AcDbLine
 10
76.00972699999999
 20
111.8810819999999
 30
0.0
 11
75.87733599999999
 21
114.40725
 31
0.0
  0
LINE
  5
1D9
330
1E
100
AcDbEntity
  8
1
  6
Continuous
 62
     7
100
AcDbLine
 10
75.00835399999999
 20
111.8810819999999
 30
0.0
 11
76.00972699999999
 21
111.8810819999999
 31
0.0
  0
LINE
  5
1DA
330
1E
100
AcDbEntity
  8
1
  6
Continuous
 62
     7
100
AcDbLine
 10
66.18305699999999
 20
111.8810819999999
 30
0.0
 11
75.00835399999999
 21
111.8810819999999
 31
0.0
  0
ARC
  5
1DB
330
1E
100
AcDbEntity
  8
1
  6
Continuous
 62
     7
100
AcDbCircle
 10
57.759727
 20
116.381082
 30
0.0
 40
9.55
100
AcDbArc
 50
331.887509
 51
0.0
  0
LINE
  5
1DC
330
1E
100
AcDbEntity
  8
1
  6
Continuous
 62
     7
100
AcDbLine
 10
67.30972699999999
 20
128.595148
 30
0.0
 11
67.30972699999999
 21
116.381082
 31
0.0
  0
ARC
  5
1DD
330
1E
100
AcDbEntity
  8
1
  6
Continuous
 62
     7
100
AcDbCircle
 10
57.759727
 20
111.8810819999999
 30
0.0
 40
19.25
100
AcDbArc
 50
60.25743099999999
 51
60.428685
  0
LINE
  5
1DE
330
1E
100
AcDbEntity
  8
1
  6
Continuous
 62
     7
100
AcDbLine
 10
74.877335
 20
114.881082
 30
0.0
 11
70.909727
 21
114.881082
 31
0.0
  0
LINE
  5
1DF
330
1E
100
AcDbEntity
  8
1
  6
Continuous
 62
     7
100
AcDbLine
 10
40.642119
 20
114.881082
 30
0.0
 11
40.34563099999999
 21
114.881082
 31
0.0
  0
LINE
  5
1E0
330
1E
100
AcDbEntity
  8
1
  6
Continuous
 62
     7
100
AcDbLine
 10
45.327459
 20
128.576222
 30
0.0
 11
44.609727
 21
114.881082
 31
0.0
  0
LINE
  5
1E1
330
1E
100
AcDbEntity
  8
1
  6
Continuous
 62
     7
100
AcDbLine
 10
70.909727
 20
114.881082
 30
0.0
 11
70.19199499999999
 21
128.576222
 31
0.0
  0
ARC
  5
1E2
330
1E
100
AcDbEntity
  8
1
  6
Continuous
 62
     7
100
AcDbCircle
 10
57.759727
 20
111.8810819999999
 30
0.0
 40
21.0
100
AcDbArc
 50
54.401951
 51
63.95835
  0
ARC
  5
1E3
330
1E
100
AcDbEntity
  8
1
  6
Continuous
 62
     7
100
AcDbCircle
 10
57.759727
 20
111.8810819999999
 30
0.0
 40
21.0
100
AcDbArc
 50
116.04165
 51
125.598049
  0
LINE
  5
1E4
330
1E
100
AcDbEntity
  8
1
  6
Continuous
 62
     7
100
AcDbLine
 10
66.83772199999999
 20
113.581082
 30
0.0
 11
66.890033
 21
113.581082
 31
0.0
  0
LINE
  5
1E5
330
1E
100
AcDbEntity
  8
1
  6
Continuous
 62
     7
100
AcDbLine
 10
48.68173099999999
 20
113.581082
 30
0.0
 11
48.62942
 21
113.581082
 31
0.0
  0
LINE
  5
1E6
330
1E
100
AcDbEntity
  8
1
  6
Continuous
 62
     7
100
AcDbLine
 10
75.427815
 20
122.984624
 30
0.0
 11
75.87733599999999
 21
114.40725
 31
0.0
  0
LINE
  5
1E7
330
1E
100
AcDbEntity
  8
1
  6
Continuous
 62
     7
100
AcDbLine
 10
40.09163899999999
 20
122.984624
 30
0.0
 11
39.64211799999999
 21
114.40725
 31
0.0
  0
CIRCLE
  5
1E8
330
1E
100
AcDbEntity
  8
1
  6
Continuous
 62
     7
100
AcDbCircle
 10
57.759727
 20
121.681082
 30
0.0
 40
4.25
  0
CIRCLE
  5
1E9
330
1E
100
AcDbEntity
  8
1
  6
Continuous
 62
     7
100
AcDbCircle
 10
57.759727
 20
121.681082
 30
0.0
 40
4.75
  0
ARC
  5
1EA
330
1E
100
AcDbEntity
  8
1
  6
Continuous
 62
     7
100
AcDbCircle
 10
62.239516
 20
107.721175
 30
0.0
 40
0.25
100
AcDbArc
 50
55.0
 51
117.3526239999999
  0
LINE
  5
1EB
330
1E
100
AcDbEntity
  8
1
  6
Continuous
 62
     7
100
AcDbLine
 10
59.50972700000001
 20
131.881082
 30
0.0
 11
59.50972700000001
 21
130.925848
 31
0.0
  0
ARC
  5
1EC
330
1E
100
AcDbEntity
  8
1
  6
Continuous
 62
     7
100
AcDbCircle
 10
57.759727
 20
111.8810819999999
 30
0.0
 40
19.125
100
AcDbArc
 50
61.92751300000001
 51
84.749905
  0
LINE
  5
1ED
330
1E
100
AcDbEntity
  8
1
  6
Continuous
 62
     7
100
AcDbLine
 10
65.35972700000001
 20
110.9265139999999
 30
0.0
 11
65.35972700000001
 21
108.29978
 31
0.0
  0
ARC
  5
1EE
330
1E
100
AcDbEntity
  8
1
  6
Continuous
 62
     7
100
AcDbCircle
 10
65.109727
 20
108.29978
 30
0.0
 40
0.25
100
AcDbArc
 50
282.3736249999999
 51
0.0
  0
ARC
  5
1EF
330
1E
100
AcDbEntity
  8
1
  6
Continuous
 62
     7
100
AcDbCircle
 10
65.85972700000001
 20
104.881082
 30
0.0
 40
3.25
100
AcDbArc
 50
102.373625
 51
132.626375
  0
ARC
  5
1F0
330
1E
100
AcDbEntity
  8
1
  6
Continuous
 62
     7
100
AcDbCircle
 10
63.489475
 20
107.456331
 30
0.0
 40
0.25
100
AcDbArc
 50
235.0
 51
312.626375
  0
LINE
  5
1F1
330
1E
100
AcDbEntity
  8
1
  6
Continuous
 62
     7
100
AcDbLine
 10
63.346081
 20
107.2515429999999
 30
0.0
 11
62.205814
 21
108.049967
 31
0.0
  0
ARC
  5
1F2
330
1E
100
AcDbEntity
  8
1
  6
Continuous
 62
     7
100
AcDbCircle
 10
57.759727
 20
111.8810819999999
 30
0.0
 40
19.125
100
AcDbArc
 50
95.25009500000001
 51
118.072487
  0
LINE
  5
1F3
330
1E
100
AcDbEntity
  8
1
  6
Continuous
 62
     7
100
AcDbLine
 10
56.009727
 20
130.925848
 30
0.0
 11
56.009727
 21
131.881082
 31
0.0
  0
ARC
  5
1F4
330
1E
100
AcDbEntity
  8
1
  6
Continuous
 62
     7
100
AcDbCircle
 10
57.759727
 20
116.381082
 30
0.0
 40
9.5
100
AcDbArc
 50
180.0
 51
297.3526239999999
  0
LINE
  5
1F5
330
1E
100
AcDbEntity
  8
1
  6
Continuous
 62
     7
100
AcDbLine
 10
48.25972700000001
 20
128.479745
 30
0.0
 11
48.25972700000001
 21
116.381082
 31
0.0
  0
LINE
  5
1F6
330
1E
100
AcDbEntity
  8
1
  6
Continuous
 62
     7
100
AcDbLine
 10
67.25972699999999
 20
116.381082
 30
0.0
 11
67.25972699999999
 21
128.479745
 31
0.0
  0
ARC
  5
1F7
330
1E
100
AcDbEntity
  8
1
  6
Continuous
 62
     7
100
AcDbCircle
 10
57.759727
 20
116.381082
 30
0.0
 40
9.5
100
AcDbArc
 50
323.622639
 51
0.0
  0
LINE
  5
1F8
330
1E
100
AcDbEntity
  8
1
  6
Continuous
 62
     7
100
AcDbLine
 10
56.009727
 20
132.131082
 30
0.0
 11
56.009727
 21
131.881082
 31
0.0
  0
LINE
  5
1F9
330
1E
100
AcDbEntity
  8
1
  6
Continuous
 62
     7
100
AcDbLine
 10
59.50972700000001
 20
132.131082
 30
0.0
 11
58.773384
 21
132.131082
 31
0.0
  0
LINE
  5
1FA
330
1E
100
AcDbEntity
  8
1
  6
Continuous
 62
     7
100
AcDbLine
 10
56.74606999999999
 20
132.131082
 30
0.0
 11
56.009727
 21
132.131082
 31
0.0
  0
LINE
  5
1FB
330
1E
100
AcDbEntity
  8
1
  6
Continuous
 62
     7
100
AcDbLine
 10
59.50972700000001
 20
131.881082
 30
0.0
 11
59.50972700000001
 21
132.131082
 31
0.0
  0
LINE
  5
1FC
330
1E
100
AcDbEntity
  8
1
  6
Continuous
 62
     7
100
AcDbLine
 10
59.195867
 20
117.681082
 30
0.0
 11
56.32358599999999
 21
117.681082
 31
0.0
  0
LINE
  5
1FD
330
1E
100
AcDbEntity
  8
1
  6
Continuous
 62
     7
100
AcDbLine
 10
47.978858
 20
106.381082
 30
0.0
 11
50.540596
 21
106.381082
 31
0.0
  0
LINE
  5
1FE
330
1E
100
AcDbEntity
  8
1
  6
Continuous
 62
     7
100
AcDbLine
 10
68.073904
 20
105.3434159999999
 30
0.0
 11
67.894925
 21
103.297677
 31
0.0
  0
LINE
  5
1FF
330
1E
100
AcDbEntity
  8
1
  6
Continuous
 62
     7
100
AcDbLine
 10
67.38143
 20
103.342602
 30
0.0
 11
67.894925
 21
103.2976759999999
 31
0.0
  0
LINE
  5
200
330
1E
100
AcDbEntity
  8
1
  6
Continuous
 62
     7
100
AcDbLine
 10
67.56040899999999
 20
105.388341
 30
0.0
 11
67.38143
 21
103.342602
 31
0.0
  0
LINE
  5
201
330
1E
100
AcDbEntity
  8
1
  6
Continuous
 62
     7
100
AcDbLine
 10
64.093987
 20
103.6302159999999
 30
0.0
 11
64.272966
 21
105.6759549999999
 31
0.0
  0
LINE
  5
202
330
1E
100
AcDbEntity
  8
1
  6
Continuous
 62
     7
100
AcDbLine
 10
64.36131800000001
 20
105.845677
 30
0.0
 11
65.686498
 21
106.957635
 31
0.0
  0
LINE
  5
203
330
1E
100
AcDbEntity
  8
1
  6
Continuous
 62
     7
100
AcDbLine
 10
66.39091399999999
 20
106.896007
 30
0.0
 11
67.502871
 21
105.570827
 31
0.0
  0
ARC
  5
204
330
1E
100
AcDbEntity
  8
1
  6
Continuous
 62
     7
100
AcDbCircle
 10
67.13228700000001
 20
103.364633
 30
0.0
 40
0.250234
100
AcDbArc
 50
265.0262609999999
 51
354.946525
  0
LINE
  5
205
330
1E
100
AcDbEntity
  8
1
  6
Continuous
 62
     7
100
AcDbLine
 10
67.11059200000001
 20
103.115342
 30
0.0
 11
64.321247
 21
103.359378
 31
0.0
  0
LINE
  5
206
330
1E
100
AcDbEntity
  8
1
  6
Continuous
 62
     7
100
AcDbLine
 10
65.407714
 20
104.01719
 30
0.0
 11
65.50794300000001
 21
105.1628139999999
 31
0.0
  0
ARC
  5
207
330
1E
100
AcDbEntity
  8
1
  6
Continuous
 62
     7
100
AcDbCircle
 10
65.507333
 20
104.0084739999999
 30
0.0
 40
0.1
100
AcDbArc
 50
175.0
 51
265.0
  0
LINE
  5
208
330
1E
100
AcDbEntity
  8
1
  6
Continuous
 62
     7
100
AcDbLine
 10
66.046525
 20
103.860919
 30
0.0
 11
65.49861800000001
 21
103.9088549999999
 31
0.0
  0
ARC
  5
209
330
1E
100
AcDbEntity
  8
1
  6
Continuous
 62
     7
100
AcDbCircle
 10
66.05523999999999
 20
103.9605389999999
 30
0.0
 40
0.1
100
AcDbArc
 50
265.0
 51
355.0
  0
LINE
  5
20A
330
1E
100
AcDbEntity
  8
1
  6
Continuous
 62
     7
100
AcDbLine
 10
66.25508899999999
 20
105.097447
 30
0.0
 11
66.15486
 21
103.951823
 31
0.0
  0
LINE
  5
20B
330
1E
100
AcDbEntity
  8
1
  6
Continuous
 62
     7
100
AcDbLine
 10
66.637208
 20
105.0640159999999
 30
0.0
 11
66.25508899999999
 21
105.097447
 31
0.0
  0
ARC
  5
20C
330
1E
100
AcDbEntity
  8
1
  6
Continuous
 62
     7
100
AcDbCircle
 10
66.64592299999999
 20
105.163635
 30
0.0
 40
0.1
100
AcDbArc
 50
265.0
 51
40.0
  0
LINE
  5
20D
330
1E
100
AcDbEntity
  8
1
  6
Continuous
 62
     7
100
AcDbLine
 10
66.03295
 20
106.0497209999999
 30
0.0
 11
66.72252799999999
 21
105.2279139999999
 31
0.0
  0
ARC
  5
20E
330
1E
100
AcDbEntity
  8
1
  6
Continuous
 62
     7
100
AcDbCircle
 10
65.956346
 20
105.9854419999999
 30
0.0
 40
0.1
100
AcDbArc
 50
40.0
 51
130.0
  0
LINE
  5
20F
330
1E
100
AcDbEntity
  8
1
  6
Continuous
 62
     7
100
AcDbLine
 10
65.070261
 20
105.3724689999999
 30
0.0
 11
65.892067
 21
106.0620459999999
 31
0.0
  0
ARC
  5
210
330
1E
100
AcDbEntity
  8
1
  6
Continuous
 62
     7
100
AcDbCircle
 10
65.134539
 20
105.2958639999999
 30
0.0
 40
0.1
100
AcDbArc
 50
130.0
 51
265.0
  0
LINE
  5
211
330
1E
100
AcDbEntity
  8
1
  6
Continuous
 62
     7
100
AcDbLine
 10
65.50794300000001
 20
105.1628139999999
 30
0.0
 11
65.12582399999999
 21
105.1962449999999
 31
0.0
  0
LINE
  5
212
330
1E
100
AcDbEntity
  8
1
  6
Continuous
 62
     7
100
AcDbLine
 10
64.029989
 20
106.24054
 30
0.0
 11
65.35516899999999
 21
107.3524979999999
 31
0.0
  0
LINE
  5
213
330
1E
100
AcDbEntity
  8
1
  6
Continuous
 62
     7
100
AcDbLine
 10
66.785776
 20
107.227336
 30
0.0
 11
67.897734
 21
105.902156
 31
0.0
  0
LINE
  5
214
330
1E
100
AcDbEntity
  8
1
  6
Continuous
 62
     7
100
AcDbLine
 10
63.580492
 20
103.6751409999999
 30
0.0
 11
63.759471
 21
105.72088
 31
0.0
  0
LINE
  5
215
330
1E
100
AcDbEntity
  8
1
  6
Continuous
 62
     7
100
AcDbLine
 10
67.065667
 20
102.6018469999999
 30
0.0
 11
64.27632199999999
 21
102.845884
 31
0.0
  0
LINE
  5
216
330
1E
100
AcDbEntity
  8
1
  6
Continuous
 62
     7
100
AcDbLine
 10
68.0008
 20
105.9886389999999
 30
0.0
 11
66.88884300000001
 21
107.3138189999999
 31
0.0
  0
LINE
  5
217
330
1E
100
AcDbEntity
  8
1
  6
Continuous
 62
     7
100
AcDbLine
 10
65.268686
 20
107.455564
 30
0.0
 11
63.943506
 21
106.343606
 31
0.0
  0
LINE
  5
218
330
1E
100
AcDbEntity
  8
1
  6
Continuous
 62
     7
100
AcDbLine
 10
63.62544
 20
105.732606
 30
0.0
 11
63.446461
 21
103.686867
 31
0.0
  0
LINE
  5
219
330
1E
100
AcDbEntity
  8
1
  6
Continuous
 62
     7
100
AcDbLine
 10
64.264596
 20
102.711852
 30
0.0
 11
67.05394100000001
 21
102.467816
 31
0.0
  0
LINE
  5
21A
330
1E
100
AcDbEntity
  8
1
  6
Continuous
 62
     7
100
AcDbLine
 10
68.02895699999999
 20
103.2859509999999
 30
0.0
 11
68.207936
 21
105.33169
 31
0.0
  0
ARC
  5
21B
330
1E
100
AcDbEntity
  8
1
  6
Continuous
 62
     7
100
AcDbCircle
 10
65.85972700000001
 20
104.881082
 30
0.0
 40
3.75
100
AcDbArc
 50
137.3377439999999
 51
175.0
  0
ARC
  5
21C
330
1E
100
AcDbEntity
  8
1
  6
Continuous
 62
     7
100
AcDbCircle
 10
65.85972700000001
 20
104.881082
 30
0.0
 40
3.75
100
AcDbArc
 50
175.0
 51
97.662256
  0
ARC
  5
21D
330
1E
100
AcDbEntity
  8
1
  6
Continuous
 62
     7
100
AcDbCircle
 10
65.85972700000001
 20
104.881082
 30
0.0
 40
4.0
100
AcDbArc
 50
175.0
 51
97.180756
  0
ARC
  5
21E
330
1E
100
AcDbEntity
  8
1
  6
Continuous
 62
     7
100
AcDbCircle
 10
65.85972700000001
 20
104.881082
 30
0.0
 40
4.0
100
AcDbArc
 50
137.819244
 51
175.0
  0
CIRCLE
  5
21F
330
1E
100
AcDbEntity
  8
1
  6
Continuous
 62
     7
100
AcDbCircle
 10
49.259727
 20
104.381082
 30
0.0
 40
2.375
  0
CIRCLE
  5
220
330
1E
100
AcDbEntity
  8
1
  6
Continuous
 62
     7
100
AcDbCircle
 10
49.259727
 20
104.381082
 30
0.0
 40
2.75
  0
LINE
  5
221
330
1E
100
AcDbEntity
  8
1
  6
Continuous
 62
     7
100
AcDbLine
 10
66.63524599999999
 20
112.993582
 30
0.0
 11
66.68874399999999
 21
112.993582
 31
0.0
  0
LINE
  5
222
330
1E
100
AcDbEntity
  8
1
  6
Continuous
 62
     7
100
AcDbLine
 10
47.30572399999999
 20
103.0310819999999
 30
0.0
 11
48.384727
 21
103.0310819999999
 31
0.0
  0
LINE
  5
223
330
1E
100
AcDbEntity
  8
1
  6
Continuous
 62
     7
100
AcDbLine
 10
48.384727
 20
103.0310819999999
 30
0.0
 11
48.384727
 21
102.781082
 31
0.0
  0
LINE
  5
224
330
1E
100
AcDbEntity
  8
1
  6
Continuous
 62
     7
100
AcDbLine
 10
47.504556
 20
102.781082
 30
0.0
 11
48.384727
 21
102.781082
 31
0.0
  0
LINE
  5
225
330
1E
100
AcDbEntity
  8
1
  6
Continuous
 62
     7
100
AcDbLine
 10
50.13472700000001
 20
102.781082
 30
0.0
 11
50.13472700000001
 21
103.0310819999999
 31
0.0
  0
LINE
  5
226
330
1E
100
AcDbEntity
  8
1
  6
Continuous
 62
     7
100
AcDbLine
 10
50.13472700000001
 20
103.0310819999999
 30
0.0
 11
51.213729
 21
103.0310819999999
 31
0.0
  0
LINE
  5
227
330
1E
100
AcDbEntity
  8
1
  6
Continuous
 62
     7
100
AcDbLine
 10
50.13472700000001
 20
102.781082
 30
0.0
 11
51.01489799999999
 21
102.781082
 31
0.0
  0
LINE
  5
228
330
1E
100
AcDbEntity
  8
1
  6
Continuous
 62
     7
100
AcDbLine
 10
50.00972700000001
 20
103.0310819999999
 30
0.0
 11
50.13472700000001
 21
103.0310819999999
 31
0.0
  0
LINE
  5
229
330
1E
100
AcDbEntity
  8
1
  6
Continuous
 62
     7
100
AcDbLine
 10
51.557688
 20
103.781082
 30
0.0
 11
50.00972700000001
 21
103.781082
 31
0.0
  0
LINE
  5
22A
330
1E
100
AcDbEntity
  8
1
  6
Continuous
 62
     7
100
AcDbLine
 10
48.509727
 20
103.781082
 30
0.0
 11
46.961766
 21
103.781082
 31
0.0
  0
LINE
  5
22B
330
1E
100
AcDbEntity
  8
1
  6
Continuous
 62
     7
100
AcDbLine
 10
48.384727
 20
103.0310819999999
 30
0.0
 11
48.509727
 21
103.0310819999999
 31
0.0
  0
LINE
  5
22C
330
1E
100
AcDbEntity
  8
1
  6
Continuous
 62
     7
100
AcDbLine
 10
66.18305699999999
 20
111.8810819999999
 30
0.0
 11
75.00829300000001
 21
111.8810819999999
 31
0.0
  0
LINE
  5
22D
330
1E
100
AcDbEntity
  8
1
  6
Continuous
 62
     7
100
AcDbLine
 10
40.511161
 20
111.8810819999999
 30
0.0
 11
49.336396
 21
111.8810819999999
 31
0.0
  0
ARC
  5
22E
330
1E
100
AcDbEntity
  8
1
  6
Continuous
 62
     7
100
AcDbCircle
 10
57.759727
 20
116.381082
 30
0.0
 40
9.55
100
AcDbArc
 50
208.112491
 51
298.412211
  0
ARC
  5
22F
330
1E
100
AcDbEntity
  8
1
  6
Continuous
 62
     7
100
AcDbCircle
 10
57.759727
 20
116.381082
 30
0.0
 40
9.55
100
AcDbArc
 50
322.875465
 51
331.887509
  0
ARC
  5
230
330
1E
100
AcDbEntity
  8
1
  6
Continuous
 62
     7
100
AcDbCircle
 10
65.85972700000001
 20
104.881082
 30
0.0
 40
4.125
100
AcDbArc
 50
180.0
 51
96.962063
  0
ARC
  5
231
330
1E
100
AcDbEntity
  8
1
  6
Continuous
 62
     7
100
AcDbCircle
 10
65.85972700000001
 20
104.881082
 30
0.0
 40
4.125
100
AcDbArc
 50
138.0379369999999
 51
180.0
  0
LINE
  5
232
330
1E
100
AcDbEntity
  8
1
  6
Continuous
 62
     7
100
AcDbLine
 10
74.29847099999999
 20
97.88108199999999
 30
0.0
 11
74.54883000000001
 21
97.88108199999999
 31
0.0
  0
LINE
  5
233
330
1E
100
AcDbEntity
  8
1
  6
Continuous
 62
     7
100
AcDbLine
 10
74.25972699999999
 20
97.88108199999999
 30
0.0
 11
74.084727
 21
97.88108199999999
 31
0.0
  0
LINE
  5
234
330
1E
100
AcDbEntity
  8
1
  6
Continuous
 62
     7
100
AcDbLine
 10
48.927966
 20
112.8810819999999
 30
0.0
 11
48.874205
 21
112.8810819999999
 31
0.0
  0
LINE
  5
235
330
1E
100
AcDbEntity
  8
1
  6
Continuous
 62
     7
100
AcDbLine
 10
66.64524899999999
 20
112.8810819999999
 30
0.0
 11
66.591488
 21
112.8810819999999
 31
0.0
  0
LINE
  5
236
330
1E
100
AcDbEntity
  8
1
  6
Continuous
 62
     7
100
AcDbLine
 10
41.434727
 20
97.88108199999999
 30
0.0
 11
41.25972700000001
 21
97.88108199999999
 31
0.0
  0
LINE
  5
237
330
1E
100
AcDbEntity
  8
1
  6
Continuous
 62
     7
100
AcDbLine
 10
48.509727
 20
102.127612
 30
0.0
 11
48.509727
 21
105.781082
 31
0.0
  0
LINE
  5
238
330
1E
100
AcDbEntity
  8
1
  6
Continuous
 62
     7
100
AcDbLine
 10
50.00972700000001
 20
105.781082
 30
0.0
 11
50.00972700000001
 21
102.127612
 31
0.0
  0
LINE
  5
239
330
1E
100
AcDbEntity
  8
1
  6
Continuous
 62
     7
100
AcDbLine
 10
50.00972700000001
 20
105.781082
 30
0.0
 11
48.509727
 21
105.781082
 31
0.0
  0
LINE
  5
23A
330
1E
100
AcDbEntity
  8
1
  6
Continuous
 62
     7
100
AcDbLine
 10
51.01489799999999
 20
102.781082
 30
0.0
 11
50.00972700000001
 21
102.781082
 31
0.0
  0
LINE
  5
23B
330
1E
100
AcDbEntity
  8
1
  6
Continuous
 62
     7
100
AcDbLine
 10
48.509727
 20
102.781082
 30
0.0
 11
47.504556
 21
102.781082
 31
0.0
  0
LINE
  5
23C
330
1E
100
AcDbEntity
  8
1
  6
Continuous
 62
     7
100
AcDbLine
 10
74.460759
 20
115.4407889999999
 30
0.0
 11
71.058695
 21
115.4407889999999
 31
0.0
  0
LINE
  5
23D
330
1E
100
AcDbEntity
  8
1
  6
Continuous
 62
     7
100
AcDbLine
 10
73.991097
 20
116.009329
 30
0.0
 11
71.528357
 21
116.009329
 31
0.0
  0
LINE
  5
23E
330
1E
100
AcDbEntity
  8
1
  6
Continuous
 62
     7
100
AcDbLine
 10
44.460759
 20
115.4407889999999
 30
0.0
 11
41.05869499999999
 21
115.4407889999999
 31
0.0
  0
LINE
  5
23F
330
1E
100
AcDbEntity
  8
1
  6
Continuous
 62
     7
100
AcDbLine
 10
43.99109699999999
 20
116.009329
 30
0.0
 11
41.52835699999999
 21
116.009329
 31
0.0
  0
LINE
  5
240
330
1E
100
AcDbEntity
  8
1
  6
Continuous
 62
     7
100
AcDbLine
 10
51.197783
 20
104.646178
 30
0.0
 11
49.98299
 21
106.381082
 31
0.0
  0
LINE
  5
241
330
1E
100
AcDbEntity
  8
1
  6
Continuous
 62
     7
100
AcDbLine
 10
60.356131
 20
132.881082
 30
0.0
 11
54.259727
 21
132.881082
 31
0.0
  0
LINE
  5
242
330
1E
100
AcDbEntity
  8
1
  6
Continuous
 62
     7
100
AcDbLine
 10
60.356131
 20
132.131082
 30
0.0
 11
60.356131
 21
132.881082
 31
0.0
  0
LINE
  5
243
330
1E
100
AcDbEntity
  8
1
  6
Continuous
 62
     7
100
AcDbLine
 10
57.936503
 20
136.631082
 30
0.0
 11
55.375843
 21
136.631082
 31
0.0
  0
LINE
  5
244
330
1E
100
AcDbEntity
  8
1
  6
Continuous
 62
     7
100
AcDbLine
 10
57.936503
 20
136.631082
 30
0.0
 11
57.936503
 21
133.131082
 31
0.0
  0
LINE
  5
245
330
1E
100
AcDbEntity
  8
1
  6
Continuous
 62
     7
100
AcDbLine
 10
60.912503
 20
132.881082
 30
0.0
 11
60.912503
 21
133.131082
 31
0.0
  0
LINE
  5
246
330
1E
100
AcDbEntity
  8
1
  6
Continuous
 62
     7
100
AcDbLine
 10
60.356131
 20
132.881082
 30
0.0
 11
60.912503
 21
132.881082
 31
0.0
  0
LINE
  5
247
330
1E
100
AcDbEntity
  8
1
  6
Continuous
 62
     7
100
AcDbLine
 10
60.912503
 20
132.131082
 30
0.0
 11
60.912503
 21
132.881082
 31
0.0
  0
LINE
  5
248
330
1E
100
AcDbEntity
  8
1
  6
Continuous
 62
     7
100
AcDbLine
 10
65.26187799999999
 20
132.881082
 30
0.0
 11
64.52637299999999
 21
132.881082
 31
0.0
  0
LINE
  5
249
330
1E
100
AcDbEntity
  8
1
  6
Continuous
 62
     7
100
AcDbLine
 10
64.52637299999999
 20
133.131082
 30
0.0
 11
64.52637299999999
 21
132.881082
 31
0.0
  0
LINE
  5
24A
330
1E
100
AcDbEntity
  8
1
  6
Continuous
 62
     7
100
AcDbLine
 10
64.52637299999999
 20
132.881082
 30
0.0
 11
64.52637299999999
 21
132.131082
 31
0.0
  0
LINE
  5
24B
330
1E
100
AcDbEntity
  8
1
  6
Continuous
 62
     7
100
AcDbLine
 10
65.26187799999999
 20
132.881082
 30
0.0
 11
65.26187799999999
 21
132.131082
 31
0.0
  0
LINE
  5
24C
330
1E
100
AcDbEntity
  8
1
  6
Continuous
 62
     7
100
AcDbLine
 10
60.912503
 20
132.881082
 30
0.0
 11
64.52637299999999
 21
132.881082
 31
0.0
  0
LINE
  5
24D
330
1E
100
AcDbEntity
  8
1
  6
Continuous
 62
     7
100
AcDbLine
 10
60.234601
 20
136.631082
 30
0.0
 11
57.936503
 21
136.631082
 31
0.0
  0
LINE
  5
24E
330
1E
100
AcDbEntity
  8
1
  6
Continuous
 62
     7
100
AcDbLine
 10
65.26187799999999
 20
132.881082
 30
0.0
 11
65.40972700000001
 21
132.881082
 31
0.0
  0
LINE
  5
24F
330
1E
100
AcDbEntity
  8
1
  6
Continuous
 62
     7
100
AcDbLine
 10
62.18121299999999
 20
136.631082
 30
0.0
 11
60.234601
 21
136.631082
 31
0.0
  0
LINE
  5
250
330
1E
100
AcDbEntity
  8
1
  6
Continuous
 62
     7
100
AcDbLine
 10
62.18121299999999
 20
133.131082
 30
0.0
 11
62.18121299999999
 21
136.631082
 31
0.0
  0
LINE
  5
251
330
1E
100
AcDbEntity
  8
1
  6
Continuous
 62
     7
100
AcDbLine
 10
62.31223299999999
 20
136.631082
 30
0.0
 11
62.18121299999999
 21
136.631082
 31
0.0
  0
LINE
  5
252
330
1E
100
AcDbEntity
  8
1
  6
Continuous
 62
     7
100
AcDbLine
 10
47.722664
 20
104.204706
 30
0.0
 11
46.89128499999999
 21
104.204706
 31
0.0
  0
LINE
  5
253
330
1E
100
AcDbEntity
  8
1
  6
Continuous
 62
     7
100
AcDbLine
 10
47.32618099999999
 20
104.641136
 30
0.0
 11
46.89900699999999
 21
104.641136
 31
0.0
  0
LINE
  5
254
330
1E
100
AcDbEntity
  8
1
  6
Continuous
 62
     7
100
AcDbLine
 10
51.628169
 20
104.204706
 30
0.0
 11
50.79678900000001
 21
104.204706
 31
0.0
  0
LINE
  5
255
330
1E
100
AcDbEntity
  8
1
  6
Continuous
 62
     7
100
AcDbLine
 10
51.620446
 20
104.641136
 30
0.0
 11
51.193273
 21
104.641136
 31
0.0
  0
LINE
  5
256
330
1E
100
AcDbEntity
  8
1
  6
Continuous
 62
     7
100
AcDbLine
 10
65.009727
 20
131.781082
 30
0.0
 11
65.009727
 21
132.0310819999999
 31
0.0
  0
LINE
  5
257
330
1E
100
AcDbEntity
  8
1
  6
Continuous
 62
     7
100
AcDbLine
 10
59.50972700000001
 20
131.781082
 30
0.0
 11
65.009727
 21
131.781082
 31
0.0
  0
LINE
  5
258
330
1E
100
AcDbEntity
  8
1
  6
Continuous
 62
     7
100
AcDbLine
 10
50.509727
 20
131.781082
 30
0.0
 11
56.009727
 21
131.781082
 31
0.0
  0
LINE
  5
259
330
1E
100
AcDbEntity
  8
1
  6
Continuous
 62
     7
100
AcDbLine
 10
50.509727
 20
132.0310819999999
 30
0.0
 11
50.509727
 21
131.781082
 31
0.0
  0
LINE
  5
25A
330
1E
100
AcDbEntity
  8
1
  6
Continuous
 62
     7
100
AcDbLine
 10
65.009727
 20
131.781082
 30
0.0
 11
65.50972699999999
 21
131.781082
 31
0.0
  0
LINE
  5
25B
330
1E
100
AcDbEntity
  8
1
  6
Continuous
 62
     7
100
AcDbLine
 10
50.00972700000001
 20
131.781082
 30
0.0
 11
50.509727
 21
131.781082
 31
0.0
  0
LINE
  5
25C
330
1E
100
AcDbEntity
  8
1
  6
Continuous
 62
     7
100
AcDbLine
 10
45.08420899999999
 20
114.381082
 30
0.0
 11
40.642119
 21
114.381082
 31
0.0
  0
LINE
  5
25D
330
1E
100
AcDbEntity
  8
1
  6
Continuous
 62
     7
100
AcDbLine
 10
74.877335
 20
114.381082
 30
0.0
 11
70.435245
 21
114.381082
 31
0.0
  0
LINE
  5
25E
330
1E
100
AcDbEntity
  8
1
  6
Continuous
 62
     7
100
AcDbLine
 10
42.759727
 20
125.8804379999999
 30
0.0
 11
42.759727
 21
116.0373989999999
 31
0.0
  0
LINE
  5
25F
330
1E
100
AcDbEntity
  8
1
  6
Continuous
 62
     7
100
AcDbLine
 10
72.759727
 20
116.0373989999999
 30
0.0
 11
72.759727
 21
125.8804379999999
 31
0.0
  0
CIRCLE
  5
260
330
1E
100
AcDbEntity
  8
1
  6
Continuous
 62
     7
100
AcDbCircle
 10
57.759727
 20
121.681082
 30
0.0
 40
4.599999999999999
  0
CIRCLE
  5
261
330
1E
100
AcDbEntity
  8
1
  6
Continuous
 62
     7
100
AcDbCircle
 10
57.759727
 20
121.681082
 30
0.0
 40
5.25
  0
LINE
  5
262
330
1E
100
AcDbEntity
  8
1
  6
Continuous
 62
     7
100
AcDbLine
 10
56.009727
 20
131.881082
 30
0.0
 11
59.50972700000001
 21
131.881082
 31
0.0
  0
LINE
  5
263
330
1E
100
AcDbEntity
  8
1
  6
Continuous
 62
     7
100
AcDbLine
 10
66.75972699999999
 20
128.756082
 30
0.0
 11
66.75972699999999
 21
116.381082
 31
0.0
  0
LINE
  5
264
330
1E
100
AcDbEntity
  8
1
  6
Continuous
 62
     7
100
AcDbLine
 10
48.75972700000001
 20
116.381082
 30
0.0
 11
48.75972700000001
 21
128.756082
 31
0.0
  0
LINE
  5
265
330
1E
100
AcDbEntity
  8
1
  6
Continuous
 62
     7
100
AcDbLine
 10
48.25972700000001
 20
116.381082
 30
0.0
 11
48.75972700000001
 21
116.381082
 31
0.0
  0
LINE
  5
266
330
1E
100
AcDbEntity
  8
1
  6
Continuous
 62
     7
100
AcDbLine
 10
67.25972699999999
 20
116.381082
 30
0.0
 11
66.75972699999999
 21
116.381082
 31
0.0
  0
LINE
  5
267
330
1E
100
AcDbEntity
  8
1
  6
Continuous
 62
     7
100
AcDbLine
 10
68.073904
 20
105.3434159999999
 30
0.0
 11
67.56040899999999
 21
105.388341
 31
0.0
  0
LINE
  5
268
330
1E
100
AcDbEntity
  8
1
  6
Continuous
 62
     7
100
AcDbLine
 10
67.11059200000001
 20
103.115342
 30
0.0
 11
67.065667
 21
102.601845
 31
0.0
  0
LINE
  5
269
330
1E
100
AcDbEntity
  8
1
  6
Continuous
 62
     7
100
AcDbLine
 10
65.35516899999999
 20
107.3524979999999
 30
0.0
 11
65.686497
 21
106.957636
 31
0.0
  0
LINE
  5
26A
330
1E
100
AcDbEntity
  8
1
  6
Continuous
 62
     7
100
AcDbLine
 10
66.39091500000001
 20
106.896008
 30
0.0
 11
66.78577699999999
 21
107.227335
 31
0.0
  0
LINE
  5
26B
330
1E
100
AcDbEntity
  8
1
  6
Continuous
 62
     7
100
AcDbLine
 10
64.029989
 20
106.24054
 30
0.0
 11
64.36131800000001
 21
105.845677
 31
0.0
  0
LINE
  5
26C
330
1E
100
AcDbEntity
  8
1
  6
Continuous
 62
     7
100
AcDbLine
 10
67.502871
 20
105.570827
 30
0.0
 11
67.897734
 21
105.902156
 31
0.0
  0
LINE
  5
26D
330
1E
100
AcDbEntity
  8
1
  6
Continuous
 62
     7
100
AcDbLine
 10
64.093987
 20
103.6302159999999
 30
0.0
 11
63.58049000000001
 21
103.6751409999999
 31
0.0
  0
LINE
  5
26E
330
1E
100
AcDbEntity
  8
1
  6
Continuous
 62
     7
100
AcDbLine
 10
64.321247
 20
103.359378
 30
0.0
 11
64.27632199999999
 21
102.845884
 31
0.0
  0
LINE
  5
26F
330
1E
100
AcDbEntity
  8
1
  6
Continuous
 62
     7
100
AcDbLine
 10
64.272966
 20
105.6759549999999
 30
0.0
 11
63.759471
 21
105.72088
 31
0.0
  0
LINE
  5
270
330
1E
100
AcDbEntity
  8
1
  6
Continuous
 62
     7
100
AcDbLine
 10
66.785776
 20
107.227336
 30
0.0
 11
66.88884300000001
 21
107.3138189999999
 31
0.0
  0
LINE
  5
271
330
1E
100
AcDbEntity
  8
1
  6
Continuous
 62
     7
100
AcDbLine
 10
65.268686
 20
107.455564
 30
0.0
 11
65.35516899999999
 21
107.3524979999999
 31
0.0
  0
LINE
  5
272
330
1E
100
AcDbEntity
  8
1
  6
Continuous
 62
     7
100
AcDbLine
 10
63.580492
 20
103.6751409999999
 30
0.0
 11
63.446461
 21
103.686867
 31
0.0
  0
LINE
  5
273
330
1E
100
AcDbEntity
  8
1
  6
Continuous
 62
     7
100
AcDbLine
 10
64.27632199999999
 20
102.845884
 30
0.0
 11
64.264596
 21
102.711852
 31
0.0
  0
LINE
  5
274
330
1E
100
AcDbEntity
  8
1
  6
Continuous
 62
     7
100
AcDbLine
 10
67.065667
 20
102.6018469999999
 30
0.0
 11
67.05394100000001
 21
102.467816
 31
0.0
  0
LINE
  5
275
330
1E
100
AcDbEntity
  8
1
  6
Continuous
 62
     7
100
AcDbLine
 10
67.894925
 20
103.297677
 30
0.0
 11
68.02895699999999
 21
103.2859509999999
 31
0.0
  0
LINE
  5
276
330
1E
100
AcDbEntity
  8
1
  6
Continuous
 62
     7
100
AcDbLine
 10
63.943506
 20
106.343606
 30
0.0
 11
64.029989
 21
106.24054
 31
0.0
  0
LINE
  5
277
330
1E
100
AcDbEntity
  8
1
  6
Continuous
 62
     7
100
AcDbLine
 10
63.759471
 20
105.72088
 30
0.0
 11
63.62544
 21
105.732606
 31
0.0
  0
LINE
  5
278
330
1E
100
AcDbEntity
  8
1
  6
Continuous
 62
     7
100
AcDbLine
 10
68.207936
 20
105.33169
 30
0.0
 11
68.073904
 21
105.3434159999999
 31
0.0
  0
LINE
  5
279
330
1E
100
AcDbEntity
  8
1
  6
Continuous
 62
     7
100
AcDbLine
 10
67.897734
 20
105.902156
 30
0.0
 11
68.0008
 21
105.9886389999999
 31
0.0
  0
CIRCLE
  5
27A
330
1E
100
AcDbEntity
  8
1
  6
Continuous
 62
     7
100
AcDbCircle
 10
49.259727
 20
104.381082
 30
0.0
 40
2.5
  0
LINE
  5
27B
330
1E
100
AcDbEntity
  8
1
  6
DASHDOT
 62
     7
100
AcDbLine
 10
61.355817
 20
104.881082
 30
0.0
 11
70.36363699999999
 21
104.881082
 31
0.0
  0
LINE
  5
27C
330
1E
100
AcDbEntity
  8
1
  6
DASHDOT
 62
     7
100
AcDbLine
 10
65.85972700000001
 20
111.705124
 30
0.0
 11
65.85972700000001
 21
98.05704
 31
0.0
  0
LINE
  5
27D
330
1E
100
AcDbEntity
  8
1
  6
DASHDOT
 62
     7
100
AcDbLine
 10
49.259727
 20
111.2051239999999
 30
0.0
 11
49.259727
 21
97.55704000000001
 31
0.0
  0
LINE
  5
27E
330
1E
100
AcDbEntity
  8
1
  6
DASHDOT
 62
     7
100
AcDbLine
 10
44.755817
 20
104.381082
 30
0.0
 11
53.763637
 21
104.381082
 31
0.0
  0
LINE
  5
27F
330
1E
100
AcDbEntity
  8
1
  6
DASHDOT
 62
     7
100
AcDbLine
 10
42.74669399999999
 20
121.681082
 30
0.0
 11
72.77275899999999
 21
121.681082
 31
0.0
  0
LINE
  5
280
330
1E
100
AcDbEntity
  8
1
  6
DASHDOT
 62
     7
100
AcDbLine
 10
57.759727
 20
147.2705909999999
 30
0.0
 11
57.759727
 21
93.14397300000001
 31
0.0
  0
LINE
  5
281
330
1E
100
AcDbEntity
  8
1
  6
Continuous
 62
     7
100
AcDbLine
 10
80.41786399999999
 20
97.88108199999999
 30
0.0
 11
37.719805
 21
97.88108199999999
 31
0.0
  0
LINE
  5
282
330
1E
100
AcDbEntity
  8
1
  6
DASHDOT
 62
     7
100
AcDbLine
 10
72.759727
 20
103.282818
 30
0.0
 11
72.759727
 21
94.27555400000001
 31
0.0
  0
LINE
  5
283
330
1E
100
AcDbEntity
  8
1
  6
DASHDOT
 62
     7
100
AcDbLine
 10
42.759727
 20
103.436788
 30
0.0
 11
42.759727
 21
94.121584
 31
0.0
  0
LINE
  5
284
330
1E
100
AcDbEntity
  8
1
  6
Continuous
 62
     7
100
AcDbLine
 10
40.028187
 20
102.203149
 30
0.0
 11
45.221216
 21
101.3581889999999
 31
0.0
  0
LINE
  5
285
330
1E
100
AcDbEntity
  8
1
  6
Continuous
 62
     7
100
AcDbLine
 10
45.221216
 20
101.3581889999999
 30
0.0
 11
45.45217199999999
 21
97.88108199999999
 31
0.0
  0
LINE
  5
286
330
1E
100
AcDbEntity
  8
1
  6
Continuous
 62
     7
100
AcDbLine
 10
75.49154399999999
 20
102.2083379999999
 30
0.0
 11
70.241393
 21
101.3581889999999
 31
0.0
  0
LINE
  5
287
330
1E
100
AcDbEntity
  8
1
  6
Continuous
 62
     7
100
AcDbLine
 10
70.241393
 20
101.3581889999999
 30
0.0
 11
69.85646700000001
 21
97.88108199999999
 31
0.0
  0
LINE
  5
288
330
1E
100
AcDbEntity
  8
1
  6
Continuous
 62
     7
100
AcDbLine
 10
43.75972700000001
 20
101.5960069999999
 30
0.0
 11
43.75972700000001
 21
97.88108199999999
 31
0.0
  0
LINE
  5
289
330
1E
100
AcDbEntity
  8
1
  6
Continuous
 62
     7
100
AcDbLine
 10
41.759727
 20
101.947625
 30
0.0
 11
41.759727
 21
97.88108199999999
 31
0.0
  0
LINE
  5
28A
330
1E
100
AcDbEntity
  8
1
  6
Continuous
 62
     7
100
AcDbLine
 10
73.759727
 20
101.9468279999999
 30
0.0
 11
73.759727
 21
97.88108199999999
 31
0.0
  0
LINE
  5
28B
330
1E
100
AcDbEntity
  8
1
  6
Continuous
 62
     7
100
AcDbLine
 10
71.75972699999999
 20
101.6191889999999
 30
0.0
 11
71.75972699999999
 21
97.88108199999999
 31
0.0
  0
LINE
  5
28C
330
1E
100
AcDbEntity
  8
1
  6
Continuous
 62
     7
100
AcDbLine
 10
75.31043199999999
 20
98.827587
 30
0.0
 11
76.00972699999999
 21
111.8810819999999
 31
0.0
  0
LINE
  5
28D
330
1E
100
AcDbEntity
  8
1
  6
Continuous
 62
     7
100
AcDbLine
 10
74.311864
 20
97.88108199999999
 30
0.0
 11
41.22098199999999
 21
97.88108199999999
 31
0.0
  0
ARC
  5
28E
330
1E
100
AcDbEntity
  8
1
  6
Continuous
 62
     7
100
AcDbCircle
 10
74.311864
 20
98.88108199999999
 30
0.0
 40
1.0
100
AcDbArc
 50
270.0
 51
356.933514
  0
LINE
  5
28F
330
1E
100
AcDbEntity
  8
1
  6
Continuous
 62
     7
100
AcDbLine
 10
39.509727
 20
111.8810819999999
 30
0.0
 11
40.20902099999999
 21
98.827587
 31
0.0
  0
LINE
  5
290
330
1E
100
AcDbEntity
  8
1
  6
Continuous
 62
     7
100
AcDbLine
 10
41.22098199999999
 20
97.88108199999999
 30
0.0
 11
41.207589
 21
97.88108199999999
 31
0.0
  0
ARC
  5
291
330
1E
100
AcDbEntity
  8
1
  6
Continuous
 62
     7
100
AcDbCircle
 10
41.207589
 20
98.88108199999999
 30
0.0
 40
1.0
100
AcDbArc
 50
183.0664859999999
 51
270.0
  0
LINE
  5
292
330
1E
100
AcDbEntity
  8
1
  6
Continuous
 62
     7
100
AcDbLine
 10
41.561351
 20
97.88108199999999
 30
0.0
 11
41.759727
 21
98.079458
 31
0.0
  0
LINE
  5
293
330
1E
100
AcDbEntity
  8
1
  6
Continuous
 62
     7
100
AcDbLine
 10
41.014487
 20
97.89990300000001
 30
0.0
 11
41.759727
 21
98.64514300000001
 31
0.0
  0
LINE
  5
294
330
1E
100
AcDbEntity
  8
1
  6
Continuous
 62
     7
100
AcDbLine
 10
40.620475
 20
98.07157700000001
 30
0.0
 11
41.759727
 21
99.21082900000001
 31
0.0
  0
LINE
  5
295
330
1E
100
AcDbEntity
  8
1
  6
Continuous
 62
     7
100
AcDbLine
 10
40.34998499999999
 20
98.366772
 30
0.0
 11
41.759727
 21
99.776514
 31
0.0
  0
LINE
  5
296
330
1E
100
AcDbEntity
  8
1
  6
Continuous
 62
     7
100
AcDbLine
 10
40.211399
 20
98.793872
 30
0.0
 11
41.759727
 21
100.3422
 31
0.0
  0
LINE
  5
297
330
1E
100
AcDbEntity
  8
1
  6
Continuous
 62
     7
100
AcDbLine
 10
40.182093
 20
99.33025100000001
 30
0.0
 11
41.759727
 21
100.9078849999999
 31
0.0
  0
LINE
  5
298
330
1E
100
AcDbEntity
  8
1
  6
Continuous
 62
     7
100
AcDbLine
 10
40.15332899999999
 20
99.867173
 30
0.0
 11
41.759727
 21
101.4735709999999
 31
0.0
  0
LINE
  5
299
330
1E
100
AcDbEntity
  8
1
  6
Continuous
 62
     7
100
AcDbLine
 10
40.124565
 20
100.404095
 30
0.0
 11
41.658372
 21
101.9379009999999
 31
0.0
  0
LINE
  5
29A
330
1E
100
AcDbEntity
  8
1
  6
Continuous
 62
     7
100
AcDbLine
 10
40.095802
 20
100.941016
 30
0.0
 11
41.171849
 21
102.017063
 31
0.0
  0
LINE
  5
29B
330
1E
100
AcDbEntity
  8
1
  6
Continuous
 62
     7
100
AcDbLine
 10
40.067038
 20
101.477938
 30
0.0
 11
40.685326
 21
102.096226
 31
0.0
  0
LINE
  5
29C
330
1E
100
AcDbEntity
  8
1
  6
Continuous
 62
     7
100
AcDbLine
 10
40.038274
 20
102.0148599999999
 30
0.0
 11
40.198803
 21
102.1753879999999
 31
0.0
  0
LINE
  5
29D
330
1E
100
AcDbEntity
  8
1
  6
Continuous
 62
     7
100
AcDbLine
 10
45.011238
 20
97.88108199999999
 30
0.0
 11
45.424708
 21
98.29455300000001
 31
0.0
  0
LINE
  5
29E
330
1E
100
AcDbEntity
  8
1
  6
Continuous
 62
     7
100
AcDbLine
 10
44.44555199999999
 20
97.88108199999999
 30
0.0
 11
45.38947499999999
 21
98.82500400000001
 31
0.0
  0
LINE
  5
29F
330
1E
100
AcDbEntity
  8
1
  6
Continuous
 62
     7
100
AcDbLine
 10
43.87986699999999
 20
97.88108199999999
 30
0.0
 11
45.35424099999999
 21
99.35545600000001
 31
0.0
  0
LINE
  5
2A0
330
1E
100
AcDbEntity
  8
1
  6
Continuous
 62
     7
100
AcDbLine
 10
43.75972700000001
 20
98.326627
 30
0.0
 11
45.319008
 21
99.885908
 31
0.0
  0
LINE
  5
2A1
330
1E
100
AcDbEntity
  8
1
  6
Continuous
 62
     7
100
AcDbLine
 10
43.75972700000001
 20
98.892313
 30
0.0
 11
45.283774
 21
100.41636
 31
0.0
  0
LINE
  5
2A2
330
1E
100
AcDbEntity
  8
1
  6
Continuous
 62
     7
100
AcDbLine
 10
43.75972700000001
 20
99.45799800000001
 30
0.0
 11
45.24854099999999
 21
100.9468119999999
 31
0.0
  0
LINE
  5
2A3
330
1E
100
AcDbEntity
  8
1
  6
Continuous
 62
     7
100
AcDbLine
 10
43.75972700000001
 20
100.0236829999999
 30
0.0
 11
45.112002
 21
101.375959
 31
0.0
  0
LINE
  5
2A4
330
1E
100
AcDbEntity
  8
1
  6
Continuous
 62
     7
100
AcDbLine
 10
43.75972700000001
 20
100.5893689999999
 30
0.0
 11
44.62547899999999
 21
101.455121
 31
0.0
  0
LINE
  5
2A5
330
1E
100
AcDbEntity
  8
1
  6
Continuous
 62
     7
100
AcDbLine
 10
43.75972700000001
 20
101.1550539999999
 30
0.0
 11
44.138956
 21
101.5342839999999
 31
0.0
  0
LINE
  5
2A6
330
1E
100
AcDbEntity
  8
1
  6
Continuous
 62
     7
100
AcDbLine
 10
71.209354
 20
97.88108199999999
 30
0.0
 11
71.75972699999999
 21
98.431454
 31
0.0
  0
LINE
  5
2A7
330
1E
100
AcDbEntity
  8
1
  6
Continuous
 62
     7
100
AcDbLine
 10
70.64366899999999
 20
97.88108199999999
 30
0.0
 11
71.75972699999999
 21
98.99714000000001
 31
0.0
  0
LINE
  5
2A8
330
1E
100
AcDbEntity
  8
1
  6
Continuous
 62
     7
100
AcDbLine
 10
70.077984
 20
97.88108199999999
 30
0.0
 11
71.75972699999999
 21
99.562825
 31
0.0
  0
LINE
  5
2A9
330
1E
100
AcDbEntity
  8
1
  6
Continuous
 62
     7
100
AcDbLine
 10
69.89931
 20
98.268094
 30
0.0
 11
71.75972699999999
 21
100.12851
 31
0.0
  0
LINE
  5
2AA
330
1E
100
AcDbEntity
  8
1
  6
Continuous
 62
     7
100
AcDbLine
 10
69.969729
 20
98.904198
 30
0.0
 11
71.75972699999999
 21
100.694196
 31
0.0
  0
LINE
  5
2AB
330
1E
100
AcDbEntity
  8
1
  6
Continuous
 62
     7
100
AcDbLine
 10
70.040148
 20
99.540302
 30
0.0
 11
71.75972699999999
 21
101.259881
 31
0.0
  0
LINE
  5
2AC
330
1E
100
AcDbEntity
  8
1
  6
Continuous
 62
     7
100
AcDbLine
 10
70.110566
 20
100.1764059999999
 30
0.0
 11
71.49540999999999
 21
101.56125
 31
0.0
  0
LINE
  5
2AD
330
1E
100
AcDbEntity
  8
1
  6
Continuous
 62
     7
100
AcDbLine
 10
70.18098499999999
 20
100.8125099999999
 30
0.0
 11
70.820425
 21
101.4519509999999
 31
0.0
  0
LINE
  5
2AE
330
1E
100
AcDbEntity
  8
1
  6
Continuous
 62
     7
100
AcDbLine
 10
74.98766299999999
 20
98.14399600000001
 30
0.0
 11
75.04895000000001
 21
98.20528299999999
 31
0.0
  0
LINE
  5
2AF
330
1E
100
AcDbEntity
  8
1
  6
Continuous
 62
     7
100
AcDbLine
 10
74.159064
 20
97.88108199999999
 30
0.0
 11
75.322028
 21
99.04404599999999
 31
0.0
  0
LINE
  5
2B0
330
1E
100
AcDbEntity
  8
1
  6
Continuous
 62
     7
100
AcDbLine
 10
73.759727
 20
98.04743000000001
 30
0.0
 11
75.35404799999999
 21
99.64175199999999
 31
0.0
  0
LINE
  5
2B1
330
1E
100
AcDbEntity
  8
1
  6
Continuous
 62
     7
100
AcDbLine
 10
73.759727
 20
98.613116
 30
0.0
 11
75.38606800000001
 21
100.239457
 31
0.0
  0
LINE
  5
2B2
330
1E
100
AcDbEntity
  8
1
  6
Continuous
 62
     7
100
AcDbLine
 10
73.759727
 20
99.17880100000001
 30
0.0
 11
75.418088
 21
100.837162
 31
0.0
  0
LINE
  5
2B3
330
1E
100
AcDbEntity
  8
1
  6
Continuous
 62
     7
100
AcDbLine
 10
73.759727
 20
99.744486
 30
0.0
 11
75.450108
 21
101.434868
 31
0.0
  0
LINE
  5
2B4
330
1E
100
AcDbEntity
  8
1
  6
Continuous
 62
     7
100
AcDbLine
 10
73.759727
 20
100.3101719999999
 30
0.0
 11
75.482128
 21
102.0325729999999
 31
0.0
  0
LINE
  5
2B5
330
1E
100
AcDbEntity
  8
1
  6
Continuous
 62
     7
100
AcDbLine
 10
73.759727
 20
100.8758569999999
 30
0.0
 11
75.015049
 21
102.1311789999999
 31
0.0
  0
LINE
  5
2B6
330
1E
100
AcDbEntity
  8
1
  6
Continuous
 62
     7
100
AcDbLine
 10
73.759727
 20
101.441543
 30
0.0
 11
74.340064
 21
102.02188
 31
0.0
  0
LINE
  5
2B7
330
1E
100
AcDbEntity
  8
1
  6
Continuous
 62
     7
100
AcDbLine
 10
178.570391
 20
106.349328
 30
0.0
 11
179.9703909999999
 21
106.349328
 31
0.0
  0
LINE
  5
2B8
330
1E
100
AcDbEntity
  8
1
  6
Continuous
 62
     7
100
AcDbLine
 10
179.9703909999999
 20
118.455266
 30
0.0
 11
178.570391
 21
118.455266
 31
0.0
  0
LINE
  5
2B9
330
1E
100
AcDbEntity
  8
1
  6
Continuous
 62
     7
100
AcDbLine
 10
178.570391
 20
99.381082
 30
0.0
 11
179.9703909999999
 21
99.381082
 31
0.0
  0
LINE
  5
2BA
330
1E
100
AcDbEntity
  8
1
  6
Continuous
 62
     7
100
AcDbLine
 10
180.9703909999999
 20
125.131082
 30
0.0
 11
180.9703909999999
 21
106.942331
 31
0.0
  0
LINE
  5
2BB
330
1E
100
AcDbEntity
  8
1
  6
Continuous
 62
     7
100
AcDbLine
 10
180.9703909999999
 20
103.825493
 30
0.0
 11
180.9703909999999
 21
98.63108199999999
 31
0.0
  0
LINE
  5
2BC
330
1E
100
AcDbEntity
  8
1
  6
Continuous
 62
     7
100
AcDbLine
 10
178.570391
 20
105.4993539999999
 30
0.0
 11
178.010683
 21
105.450386
 31
0.0
  0
LINE
  5
2BD
330
1E
100
AcDbEntity
  8
1
  6
Continuous
 62
     7
100
AcDbLine
 10
178.010683
 20
102.048322
 30
0.0
 11
178.570391
 21
101.9993539999999
 31
0.0
  0
ARC
  5
2BE
330
1E
100
AcDbEntity
  8
1
  6
Continuous
 62
     7
100
AcDbCircle
 10
178.067334
 20
104.8028589999999
 30
0.0
 40
0.65
100
AcDbArc
 50
95.0
 51
164.1191499999999
  0
ARC
  5
2BF
330
1E
100
AcDbEntity
  8
1
  6
Continuous
 62
     7
100
AcDbCircle
 10
178.067334
 20
102.695848
 30
0.0
 40
0.65
100
AcDbArc
 50
195.88085
 51
265.0
  0
LINE
  5
2C0
330
1E
100
AcDbEntity
  8
1
  6
Continuous
 62
     7
100
AcDbLine
 10
177.284301
 20
103.9993539999999
 30
0.0
 11
177.414073
 21
103.9993539999999
 31
0.0
  0
ARC
  5
2C1
330
1E
100
AcDbEntity
  8
1
  6
Continuous
 62
     7
100
AcDbCircle
 10
181.7703909999999
 20
103.749354
 30
0.0
 40
4.49305
100
AcDbArc
 50
165.8286529999999
 51
176.8103299999999
  0
ARC
  5
2C2
330
1E
100
AcDbEntity
  8
1
  6
Continuous
 62
     7
100
AcDbCircle
 10
181.7703909999999
 20
103.749354
 30
0.0
 40
4.49305
100
AcDbArc
 50
183.18967
 51
194.171347
  0
LINE
  5
2C3
330
1E
100
AcDbEntity
  8
1
  6
Continuous
 62
     7
100
AcDbLine
 10
177.414073
 20
103.4993539999999
 30
0.0
 11
177.284301
 21
103.4993539999999
 31
0.0
  0
ARC
  5
2C4
330
1E
100
AcDbEntity
  8
1
  6
Continuous
 62
     7
100
AcDbCircle
 10
181.7703909999999
 20
103.749354
 30
0.0
 40
4.363484999999999
100
AcDbArc
 50
176.715517
 51
183.2844829999999
  0
LINE
  5
2C5
330
1E
100
AcDbEntity
  8
1
  6
Continuous
 62
     7
100
AcDbLine
 10
178.010683
 20
105.450386
 30
0.0
 11
178.010683
 21
102.048322
 31
0.0
  0
LINE
  5
2C6
330
1E
100
AcDbEntity
  8
1
  6
Continuous
 62
     7
100
AcDbLine
 10
177.4421429999999
 20
104.980724
 30
0.0
 11
177.4421429999999
 21
102.517984
 31
0.0
  0
LINE
  5
2C7
330
1E
100
AcDbEntity
  8
1
  6
Continuous
 62
     7
100
AcDbLine
 10
178.570391
 20
105.4993539999999
 30
0.0
 11
178.570391
 21
101.9993539999999
 31
0.0
  0
LINE
  5
2C8
330
1E
100
AcDbEntity
  8
1
  6
Continuous
 62
     7
100
AcDbLine
 10
178.570391
 20
121.76281
 30
0.0
 11
178.010683
 21
121.7138419999999
 31
0.0
  0
LINE
  5
2C9
330
1E
100
AcDbEntity
  8
1
  6
Continuous
 62
     7
100
AcDbLine
 10
178.010683
 20
118.311778
 30
0.0
 11
178.570391
 21
118.26281
 31
0.0
  0
ARC
  5
2CA
330
1E
100
AcDbEntity
  8
1
  6
Continuous
 62
     7
100
AcDbCircle
 10
178.067334
 20
121.066315
 30
0.0
 40
0.65
100
AcDbArc
 50
95.0
 51
164.1191499999999
  0
ARC
  5
2CB
330
1E
100
AcDbEntity
  8
1
  6
Continuous
 62
     7
100
AcDbCircle
 10
178.067334
 20
118.959304
 30
0.0
 40
0.65
100
AcDbArc
 50
195.88085
 51
265.0
  0
LINE
  5
2CC
330
1E
100
AcDbEntity
  8
1
  6
Continuous
 62
     7
100
AcDbLine
 10
177.284301
 20
120.26281
 30
0.0
 11
177.414073
 21
120.26281
 31
0.0
  0
ARC
  5
2CD
330
1E
100
AcDbEntity
  8
1
  6
Continuous
 62
     7
100
AcDbCircle
 10
181.7703909999999
 20
120.01281
 30
0.0
 40
4.49305
100
AcDbArc
 50
165.8286529999999
 51
176.8103299999999
  0
ARC
  5
2CE
330
1E
100
AcDbEntity
  8
1
  6
Continuous
 62
     7
100
AcDbCircle
 10
181.7703909999999
 20
120.01281
 30
0.0
 40
4.49305
100
AcDbArc
 50
183.18967
 51
194.171347
  0
LINE
  5
2CF
330
1E
100
AcDbEntity
  8
1
  6
Continuous
 62
     7
100
AcDbLine
 10
177.414073
 20
119.76281
 30
0.0
 11
177.284301
 21
119.76281
 31
0.0
  0
ARC
  5
2D0
330
1E
100
AcDbEntity
  8
1
  6
Continuous
 62
     7
100
AcDbCircle
 10
181.7703909999999
 20
120.01281
 30
0.0
 40
4.363484999999999
100
AcDbArc
 50
176.715517
 51
183.2844829999999
  0
LINE
  5
2D1
330
1E
100
AcDbEntity
  8
1
  6
Continuous
 62
     7
100
AcDbLine
 10
178.010683
 20
121.7138419999999
 30
0.0
 11
178.010683
 21
118.311778
 31
0.0
  0
LINE
  5
2D2
330
1E
100
AcDbEntity
  8
1
  6
Continuous
 62
     7
100
AcDbLine
 10
177.4421429999999
 20
121.24418
 30
0.0
 11
177.4421429999999
 21
118.7814399999999
 31
0.0
  0
LINE
  5
2D3
330
1E
100
AcDbEntity
  8
1
  6
Continuous
 62
     7
100
AcDbLine
 10
178.570391
 20
121.76281
 30
0.0
 11
178.570391
 21
118.26281
 31
0.0
  0
LINE
  5
2D4
330
1E
100
AcDbEntity
  8
1
  6
Continuous
 62
     7
100
AcDbLine
 10
181.9703909999999
 20
103.6310819999999
 30
0.0
 11
181.9703909999999
 21
107.868008
 31
0.0
  0
LINE
  5
2D5
330
1E
100
AcDbEntity
  8
1
  6
Continuous
 62
     7
100
AcDbLine
 10
181.9703909999999
 20
107.131082
 30
0.0
 11
181.9703909999999
 21
103.6310819999999
 31
0.0
  0
LINE
  5
2D6
330
1E
100
AcDbEntity
  8
1
  6
Continuous
 62
     7
100
AcDbLine
 10
180.9703909999999
 20
103.825493
 30
0.0
 11
181.0545229999999
 21
103.825493
 31
0.0
  0
LINE
  5
2D7
330
1E
100
AcDbEntity
  8
1
  6
Continuous
 62
     7
100
AcDbLine
 10
180.9703909999999
 20
103.825493
 30
0.0
 11
179.9703909999999
 21
105.303421
 31
0.0
  0
LINE
  5
2D8
330
1E
100
AcDbEntity
  8
1
  6
Continuous
 62
     7
100
AcDbLine
 10
179.9703909999999
 20
99.381082
 30
0.0
 11
179.9703909999999
 21
103.825493
 31
0.0
  0
LINE
  5
2D9
330
1E
100
AcDbEntity
  8
1
  6
Continuous
 62
     7
100
AcDbLine
 10
180.9703909999999
 20
98.63108199999999
 30
0.0
 11
183.7203909999999
 21
98.63108199999999
 31
0.0
  0
LINE
  5
2DA
330
1E
100
AcDbEntity
  8
1
  6
Continuous
 62
     7
100
AcDbLine
 10
180.9703909999999
 20
98.63108199999999
 30
0.0
 11
179.9703909999999
 21
99.381082
 31
0.0
  0
LINE
  5
2DB
330
1E
100
AcDbEntity
  8
1
  6
Continuous
 62
     7
100
AcDbLine
 10
180.970382
 20
106.942331
 30
0.0
 11
181.061507
 21
106.942331
 31
0.0
  0
LINE
  5
2DC
330
1E
100
AcDbEntity
  8
1
  6
Continuous
 62
     7
100
AcDbLine
 10
179.9703909999999
 20
118.455266
 30
0.0
 11
180.9703909999999
 21
118.6499489999999
 31
0.0
  0
LINE
  5
2DD
330
1E
100
AcDbEntity
  8
1
  6
Continuous
 62
     7
100
AcDbLine
 10
179.9703909999999
 20
124.3810819999999
 30
0.0
 11
180.9703909999999
 21
125.131082
 31
0.0
  0
LINE
  5
2DE
330
1E
100
AcDbEntity
  8
1
  6
Continuous
 62
     7
100
AcDbLine
 10
227.3706299999999
 20
107.3524979999999
 30
0.0
 11
227.650866
 21
107.131082
 31
0.0
  0
LINE
  5
2DF
330
1E
100
AcDbEntity
  8
1
  6
Continuous
 62
     7
100
AcDbLine
 10
223.770391
 20
107.4377949999999
 30
0.0
 11
227.3706299999999
 21
107.3524979999999
 31
0.0
  0
LINE
  5
2E0
330
1E
100
AcDbEntity
  8
1
  6
Continuous
 62
     7
100
AcDbLine
 10
223.753319
 20
107.2515429999999
 30
0.0
 11
223.770391
 21
107.2515429999999
 31
0.0
  0
LINE
  5
2E1
330
1E
100
AcDbEntity
  8
1
  6
Continuous
 62
     7
100
AcDbLine
 10
235.3203909999999
 20
116.9310819999999
 30
0.0
 11
235.3203909999999
 21
126.431082
 31
0.0
  0
LINE
  5
2E2
330
1E
100
AcDbEntity
  8
1
  6
Continuous
 62
     7
100
AcDbLine
 10
224.270391
 20
116.9310819999999
 30
0.0
 11
224.270391
 21
121.681082
 31
0.0
  0
LINE
  5
2E3
330
1E
100
AcDbEntity
  8
1
  6
Continuous
 62
     7
100
AcDbLine
 10
224.270391
 20
121.681082
 30
0.0
 11
224.270391
 21
126.431082
 31
0.0
  0
LINE
  5
2E4
330
1E
100
AcDbEntity
  8
1
  6
Continuous
 62
     7
100
AcDbLine
 10
221.2203909999999
 20
116.381082
 30
0.0
 11
223.270391
 21
116.381082
 31
0.0
  0
LINE
  5
2E5
330
1E
100
AcDbEntity
  8
1
  6
Continuous
 62
     7
100
AcDbLine
 10
223.270391
 20
128.479745
 30
0.0
 11
223.270391
 21
116.381082
 31
0.0
  0
LINE
  5
2E6
330
1E
100
AcDbEntity
  8
1
  6
Continuous
 62
     7
100
AcDbLine
 10
223.270391
 20
116.381082
 30
0.0
 11
223.770391
 21
116.381082
 31
0.0
  0
LINE
  5
2E7
330
1E
100
AcDbEntity
  8
1
  6
Continuous
 62
     7
100
AcDbLine
 10
223.270391
 20
116.381082
 30
0.0
 11
223.270391
 21
107.131082
 31
0.0
  0
LINE
  5
2E8
330
1E
100
AcDbEntity
  8
1
  6
Continuous
 62
     7
100
AcDbLine
 10
211.636111
 20
132.8808889999999
 30
0.0
 11
211.636111
 21
133.031082
 31
0.0
  0
LINE
  5
2E9
330
1E
100
AcDbEntity
  8
1
  6
Continuous
 62
     7
100
AcDbLine
 10
210.3642279999999
 20
132.8690689999999
 30
0.0
 11
210.3642279999999
 21
133.031082
 31
0.0
  0
LINE
  5
2EA
330
1E
100
AcDbEntity
  8
1
  6
Continuous
 62
     7
100
AcDbLine
 10
223.270391
 20
132.0310819999999
 30
0.0
 11
223.270391
 21
131.781082
 31
0.0
  0
LINE
  5
2EB
330
1E
100
AcDbEntity
  8
1
  6
Continuous
 62
     7
100
AcDbLine
 10
223.270391
 20
131.781082
 30
0.0
 11
220.170391
 21
131.781082
 31
0.0
  0
LINE
  5
2EC
330
1E
100
AcDbEntity
  8
1
  6
Continuous
 62
     7
100
AcDbLine
 10
220.170391
 20
131.398702
 30
0.0
 11
220.170391
 21
131.781082
 31
0.0
  0
LINE
  5
2ED
330
1E
100
AcDbEntity
  8
1
  6
Continuous
 62
     7
100
AcDbLine
 10
223.270391
 20
131.781082
 30
0.0
 11
223.770391
 21
131.781082
 31
0.0
  0
LINE
  5
2EE
330
1E
100
AcDbEntity
  8
1
  6
Continuous
 62
     7
100
AcDbLine
 10
223.270391
 20
131.781082
 30
0.0
 11
223.270391
 21
131.398702
 31
0.0
  0
LINE
  5
2EF
330
1E
100
AcDbEntity
  8
1
  6
Continuous
 62
     7
100
AcDbLine
 10
220.170391
 20
131.781082
 30
0.0
 11
220.170391
 21
132.0310819999999
 31
0.0
  0
LINE
  5
2F0
330
1E
100
AcDbEntity
  8
1
  6
Continuous
 62
     7
100
AcDbLine
 10
216.2880589999999
 20
131.781082
 30
0.0
 11
220.170391
 21
131.781082
 31
0.0
  0
LINE
  5
2F1
330
1E
100
AcDbEntity
  8
1
  6
Continuous
 62
     7
100
AcDbLine
 10
223.270391
 20
130.299822
 30
0.0
 11
221.167216
 21
130.299822
 31
0.0
  0
LINE
  5
2F2
330
1E
100
AcDbEntity
  8
1
  6
Continuous
 62
     7
100
AcDbLine
 10
223.270391
 20
128.623617
 30
0.0
 11
223.270391
 21
130.299822
 31
0.0
  0
LINE
  5
2F3
330
1E
100
AcDbEntity
  8
1
  6
Continuous
 62
     7
100
AcDbLine
 10
223.270391
 20
130.74906
 30
0.0
 11
223.270391
 21
130.299822
 31
0.0
  0
LINE
  5
2F4
330
1E
100
AcDbEntity
  8
1
  6
Continuous
 62
     7
100
AcDbLine
 10
223.270391
 20
130.299822
 30
0.0
 11
223.770391
 21
130.299822
 31
0.0
  0
LINE
  5
2F5
330
1E
100
AcDbEntity
  8
1
  6
Continuous
 62
     7
100
AcDbLine
 10
220.720391
 20
128.956614
 30
0.0
 11
220.720391
 21
128.576222
 31
0.0
  0
LINE
  5
2F6
330
1E
100
AcDbEntity
  8
1
  6
Continuous
 62
     7
100
AcDbLine
 10
218.9703909999999
 20
128.576222
 30
0.0
 11
220.720391
 21
128.576222
 31
0.0
  0
LINE
  5
2F7
330
1E
100
AcDbEntity
  8
1
  6
Continuous
 62
     7
100
AcDbLine
 10
220.720391
 20
128.576222
 30
0.0
 11
220.720391
 21
114.881082
 31
0.0
  0
LINE
  5
2F8
330
1E
100
AcDbEntity
  8
1
  6
Continuous
 62
     7
100
AcDbLine
 10
184.5856969999999
 20
115.92941
 30
0.0
 11
184.507387
 21
128.14875
 31
0.0
  0
LINE
  5
2F9
330
1E
100
AcDbEntity
  8
1
  6
Continuous
 62
     7
100
AcDbLine
 10
218.9703909999999
 20
116.0445669999999
 30
0.0
 11
218.9703909999999
 21
128.576222
 31
0.0
  0
LINE
  5
2FA
330
1E
100
AcDbEntity
  8
1
  6
Continuous
 62
     7
100
AcDbLine
 10
218.9703909999999
 20
128.956614
 30
0.0
 11
218.9703909999999
 21
128.576222
 31
0.0
  0
LINE
  5
2FB
330
1E
100
AcDbEntity
  8
1
  6
Continuous
 62
     7
100
AcDbLine
 10
184.2203909999999
 20
132.881082
 30
0.0
 11
184.2203909999999
 21
128.5187169999999
 31
0.0
  0
LINE
  5
2FC
330
1E
100
AcDbEntity
  8
1
  6
Continuous
 62
     7
100
AcDbLine
 10
218.9703909999999
 20
128.956614
 30
0.0
 11
220.720391
 21
128.956614
 31
0.0
  0
LINE
  5
2FD
330
1E
100
AcDbEntity
  8
1
  6
Continuous
 62
     7
100
AcDbLine
 10
220.720391
 20
130.74906
 30
0.0
 11
220.720391
 21
128.956614
 31
0.0
  0
LINE
  5
2FE
330
1E
100
AcDbEntity
  8
1
  6
Continuous
 62
     7
100
AcDbLine
 10
223.270391
 20
130.74906
 30
0.0
 11
220.720391
 21
130.74906
 31
0.0
  0
LINE
  5
2FF
330
1E
100
AcDbEntity
  8
1
  6
Continuous
 62
     7
100
AcDbLine
 10
223.270391
 20
130.74906
 30
0.0
 11
223.270391
 21
131.398702
 31
0.0
  0
LINE
  5
300
330
1E
100
AcDbEntity
  8
1
  6
Continuous
 62
     7
100
AcDbLine
 10
184.7203909999999
 20
114.40725
 30
0.0
 11
184.7203909999999
 21
114.881082
 31
0.0
  0
LINE
  5
301
330
1E
100
AcDbEntity
  8
1
  6
Continuous
 62
     7
100
AcDbLine
 10
220.220391
 20
114.881082
 30
0.0
 11
220.220391
 21
114.40725
 31
0.0
  0
LINE
  5
302
330
1E
100
AcDbEntity
  8
1
  6
Continuous
 62
     7
100
AcDbLine
 10
188.7443939999999
 20
122.984624
 30
0.0
 11
216.196387
 21
122.984624
 31
0.0
  0
LINE
  5
303
330
1E
100
AcDbEntity
  8
1
  6
Continuous
 62
     7
100
AcDbLine
 10
188.294873
 20
114.40725
 30
0.0
 11
188.7443939999999
 21
122.984624
 31
0.0
  0
LINE
  5
304
330
1E
100
AcDbEntity
  8
1
  6
Continuous
 62
     7
100
AcDbLine
 10
184.7203909999999
 20
114.40725
 30
0.0
 11
188.294873
 21
114.40725
 31
0.0
  0
LINE
  5
305
330
1E
100
AcDbEntity
  8
1
  6
Continuous
 62
     7
100
AcDbLine
 10
216.645908
 20
114.40725
 30
0.0
 11
220.220391
 21
114.40725
 31
0.0
  0
LINE
  5
306
330
1E
100
AcDbEntity
  8
1
  6
Continuous
 62
     7
100
AcDbLine
 10
216.196387
 20
122.984624
 30
0.0
 11
216.645908
 21
114.40725
 31
0.0
  0
LINE
  5
307
330
1E
100
AcDbEntity
  8
1
  6
Continuous
 62
     7
100
AcDbLine
 10
215.748904
 20
136.631082
 30
0.0
 11
215.6178849999999
 21
136.631082
 31
0.0
  0
LINE
  5
308
330
1E
100
AcDbEntity
  8
1
  6
Continuous
 62
     7
100
AcDbLine
 10
217.6955169999999
 20
136.631082
 30
0.0
 11
215.748904
 21
136.631082
 31
0.0
  0
LINE
  5
309
330
1E
100
AcDbEntity
  8
1
  6
Continuous
 62
     7
100
AcDbLine
 10
215.748904
 20
133.131082
 30
0.0
 11
215.748904
 21
136.631082
 31
0.0
  0
LINE
  5
30A
330
1E
100
AcDbEntity
  8
1
  6
Continuous
 62
     7
100
AcDbLine
 10
212.520391
 20
132.881082
 30
0.0
 11
212.668239
 21
132.881082
 31
0.0
  0
LINE
  5
30B
330
1E
100
AcDbEntity
  8
1
  6
Continuous
 62
     7
100
AcDbLine
 10
219.993614
 20
136.631082
 30
0.0
 11
217.6955169999999
 21
136.631082
 31
0.0
  0
LINE
  5
30C
330
1E
100
AcDbEntity
  8
1
  6
Continuous
 62
     7
100
AcDbLine
 10
212.668239
 20
132.753702
 30
0.0
 11
212.668239
 21
132.881082
 31
0.0
  0
LINE
  5
30D
330
1E
100
AcDbEntity
  8
1
  6
Continuous
 62
     7
100
AcDbLine
 10
213.4037439999999
 20
132.5008409999999
 30
0.0
 11
213.4037439999999
 21
132.881082
 31
0.0
  0
LINE
  5
30E
330
1E
100
AcDbEntity
  8
1
  6
Continuous
 62
     7
100
AcDbLine
 10
213.4037439999999
 20
132.881082
 30
0.0
 11
217.017614
 21
132.881082
 31
0.0
  0
LINE
  5
30F
330
1E
100
AcDbEntity
  8
1
  6
Continuous
 62
     7
100
AcDbLine
 10
213.4037439999999
 20
133.131082
 30
0.0
 11
213.4037439999999
 21
132.881082
 31
0.0
  0
LINE
  5
310
330
1E
100
AcDbEntity
  8
1
  6
Continuous
 62
     7
100
AcDbLine
 10
213.4037439999999
 20
132.881082
 30
0.0
 11
212.668239
 21
132.881082
 31
0.0
  0
LINE
  5
311
330
1E
100
AcDbEntity
  8
1
  6
Continuous
 62
     7
100
AcDbLine
 10
217.017614
 20
132.881082
 30
0.0
 11
217.017614
 21
132.131082
 31
0.0
  0
LINE
  5
312
330
1E
100
AcDbEntity
  8
1
  6
Continuous
 62
     7
100
AcDbLine
 10
217.017614
 20
132.881082
 30
0.0
 11
217.017614
 21
133.131082
 31
0.0
  0
LINE
  5
313
330
1E
100
AcDbEntity
  8
1
  6
Continuous
 62
     7
100
AcDbLine
 10
217.017614
 20
132.881082
 30
0.0
 11
217.5739859999999
 21
132.881082
 31
0.0
  0
LINE
  5
314
330
1E
100
AcDbEntity
  8
1
  6
Continuous
 62
     7
100
AcDbLine
 10
219.993614
 20
133.131082
 30
0.0
 11
219.993614
 21
136.631082
 31
0.0
  0
LINE
  5
315
330
1E
100
AcDbEntity
  8
1
  6
Continuous
 62
     7
100
AcDbLine
 10
222.554274
 20
136.631082
 30
0.0
 11
219.993614
 21
136.631082
 31
0.0
  0
LINE
  5
316
330
1E
100
AcDbEntity
  8
1
  6
Continuous
 62
     7
100
AcDbLine
 10
217.5739859999999
 20
132.881082
 30
0.0
 11
217.5739859999999
 21
132.131082
 31
0.0
  0
LINE
  5
317
330
1E
100
AcDbEntity
  8
1
  6
Continuous
 62
     7
100
AcDbLine
 10
223.670391
 20
132.881082
 30
0.0
 11
217.5739859999999
 21
132.881082
 31
0.0
  0
LINE
  5
318
330
1E
100
AcDbEntity
  8
1
  6
Continuous
 62
     7
100
AcDbLine
 10
181.9703909999999
 20
109.4810819999999
 30
0.0
 11
183.7203909999999
 21
109.4810819999999
 31
0.0
  0
LINE
  5
319
330
1E
100
AcDbEntity
  8
1
  6
Continuous
 62
     7
100
AcDbLine
 10
183.7203909999999
 20
107.981082
 30
0.0
 11
181.9703909999999
 21
107.981082
 31
0.0
  0
LINE
  5
31A
330
1E
100
AcDbEntity
  8
1
  6
Continuous
 62
     7
100
AcDbLine
 10
119.7071779999999
 20
120.10125
 30
0.0
 11
119.7071779999999
 21
103.6609129999999
 31
0.0
  0
LINE
  5
31B
330
1E
100
AcDbEntity
  8
1
  6
Continuous
 62
     7
100
AcDbLine
 10
121.0945879999999
 20
121.031082
 30
0.0
 11
121.0945879999999
 21
102.731082
 31
0.0
  0
LINE
  5
31C
330
1E
100
AcDbEntity
  8
1
  6
Continuous
 62
     7
100
AcDbLine
 10
166.661747
 20
102.331082
 30
0.0
 11
166.661747
 21
121.431082
 31
0.0
  0
LINE
  5
31D
330
1E
100
AcDbEntity
  8
1
  6
Continuous
 62
     7
100
AcDbLine
 10
166.1857429999999
 20
102.222757
 30
0.0
 11
166.1857429999999
 21
121.5394059999999
 31
0.0
  0
LINE
  5
31E
330
1E
100
AcDbEntity
  8
1
  6
Continuous
 62
     7
100
AcDbLine
 10
123.5068429999999
 20
122.5920939999999
 30
0.0
 11
123.5068429999999
 21
101.17007
 31
0.0
  0
LINE
  5
31F
330
1E
100
AcDbEntity
  8
1
  6
Continuous
 62
     7
100
AcDbLine
 10
164.219159
 20
101.2787969999999
 30
0.0
 11
164.219159
 21
122.4833659999999
 31
0.0
  0
LINE
  5
320
330
1E
100
AcDbEntity
  8
1
  6
Continuous
 62
     7
100
AcDbLine
 10
163.5700629999999
 20
101.1310819999999
 30
0.0
 11
163.5700629999999
 21
122.631082
 31
0.0
  0
LINE
  5
321
330
1E
100
AcDbEntity
  8
1
  6
Continuous
 62
     7
100
AcDbLine
 10
123.8466129999999
 20
122.631082
 30
0.0
 11
123.8466129999999
 21
101.1310819999999
 31
0.0
  0
LINE
  5
322
330
1E
100
AcDbEntity
  8
1
  6
Continuous
 62
     7
100
AcDbLine
 10
187.201761
 20
116.009329
 30
0.0
 11
184.739021
 21
116.009329
 31
0.0
  0
LINE
  5
323
330
1E
100
AcDbEntity
  8
1
  6
Continuous
 62
     7
100
AcDbLine
 10
187.671423
 20
115.4407889999999
 30
0.0
 11
184.269359
 21
115.4407889999999
 31
0.0
  0
LINE
  5
324
330
1E
100
AcDbEntity
  8
1
  6
Continuous
 62
     7
100
AcDbLine
 10
220.2017609999999
 20
116.009329
 30
0.0
 11
217.7390209999999
 21
116.009329
 31
0.0
  0
LINE
  5
325
330
1E
100
AcDbEntity
  8
1
  6
Continuous
 62
     7
100
AcDbLine
 10
220.671423
 20
115.4407889999999
 30
0.0
 11
217.2693589999999
 21
115.4407889999999
 31
0.0
  0
LINE
  5
326
330
1E
100
AcDbEntity
  8
1
  6
Continuous
 62
     7
100
AcDbLine
 10
180.8421429999999
 20
106.612452
 30
0.0
 11
180.8421429999999
 21
104.149712
 31
0.0
  0
LINE
  5
327
330
1E
100
AcDbEntity
  8
1
  6
Continuous
 62
     7
100
AcDbLine
 10
181.410683
 20
107.0821139999999
 30
0.0
 11
181.410683
 21
103.68005
 31
0.0
  0
LINE
  5
328
330
1E
100
AcDbEntity
  8
1
  6
Continuous
 62
     7
100
AcDbLine
 10
187.4703909999999
 20
97.88108199999999
 30
0.0
 11
187.2953909999999
 21
97.88108199999999
 31
0.0
  0
LINE
  5
329
330
1E
100
AcDbEntity
  8
1
  6
Continuous
 62
     7
100
AcDbLine
 10
217.645391
 20
97.88108199999999
 30
0.0
 11
217.470391
 21
97.88108199999999
 31
0.0
  0
LINE
  5
32A
330
1E
100
AcDbEntity
  8
1
  6
Continuous
 62
     7
100
AcDbLine
 10
220.220391
 20
97.88108199999999
 30
0.0
 11
184.7203909999999
 21
97.88108199999999
 31
0.0
  0
LINE
  5
32B
330
1E
100
AcDbEntity
  8
1
  6
Continuous
 62
     7
100
AcDbLine
 10
183.7203909999999
 20
106.25879
 30
0.0
 11
183.7203909999999
 21
111.88026
 31
0.0
  0
LINE
  5
32C
330
1E
100
AcDbEntity
  8
1
  6
Continuous
 62
     7
100
AcDbLine
 10
183.7203909999999
 20
98.63108199999999
 30
0.0
 11
183.7203909999999
 21
104.246929
 31
0.0
  0
LINE
  5
32D
330
1E
100
AcDbEntity
  8
1
  6
Continuous
 62
     7
100
AcDbLine
 10
183.7203909999999
 20
98.63108199999999
 30
0.0
 11
183.758341
 21
98.62323299999999
 31
0.0
  0
LINE
  5
32E
330
1E
100
AcDbEntity
  8
1
  6
Continuous
 62
     7
100
AcDbLine
 10
184.7203909999999
 20
111.8810819999999
 30
0.0
 11
220.220391
 21
111.8810819999999
 31
0.0
  0
LINE
  5
32F
330
1E
100
AcDbEntity
  8
1
  6
Continuous
 62
     7
100
AcDbLine
 10
227.3706299999999
 20
107.131082
 30
0.0
 11
227.3706299999999
 21
107.3524979999999
 31
0.0
  0
LINE
  5
330
330
1E
100
AcDbEntity
  8
1
  6
Continuous
 62
     7
100
AcDbLine
 10
223.020391
 20
101.1310819999999
 30
0.0
 11
223.020391
 21
101.6310819999999
 31
0.0
  0
LINE
  5
331
330
1E
100
AcDbEntity
  8
1
  6
Continuous
 62
     7
100
AcDbLine
 10
221.3703909999999
 20
101.6310819999999
 30
0.0
 11
221.3703909999999
 21
100.8810819999999
 31
0.0
  0
LINE
  5
332
330
1E
100
AcDbEntity
  8
1
  6
Continuous
 62
     7
100
AcDbLine
 10
222.770391
 20
101.6310819999999
 30
0.0
 11
222.770391
 21
100.8810819999999
 31
0.0
  0
LINE
  5
333
330
1E
100
AcDbEntity
  8
1
  6
Continuous
 62
     7
100
AcDbLine
 10
184.6453909999999
 20
97.88108199999999
 30
0.0
 11
184.7203909999999
 21
97.88108199999999
 31
0.0
  0
LINE
  5
334
330
1E
100
AcDbEntity
  8
1
  6
Continuous
 62
     7
100
AcDbLine
 10
220.220391
 20
97.88108199999999
 30
0.0
 11
220.295391
 21
97.88108199999999
 31
0.0
  0
LINE
  5
335
330
1E
100
AcDbEntity
  8
1
  6
Continuous
 62
     7
100
AcDbLine
 10
223.770391
 20
107.206331
 30
0.0
 11
223.770391
 21
107.2515429999999
 31
0.0
  0
LINE
  5
336
330
1E
100
AcDbEntity
  8
1
  6
Continuous
 62
     7
100
AcDbLine
 10
223.770391
 20
107.2515429999999
 30
0.0
 11
223.770391
 21
108.049967
 31
0.0
  0
LINE
  5
337
330
1E
100
AcDbEntity
  8
1
  6
Continuous
 62
     7
100
AcDbLine
 10
223.770391
 20
131.781082
 30
0.0
 11
223.770391
 21
131.794221
 31
0.0
  0
LINE
  5
338
330
1E
100
AcDbEntity
  8
1
  6
Continuous
 62
     7
100
AcDbLine
 10
223.770391
 20
130.925848
 30
0.0
 11
223.770391
 21
131.056136
 31
0.0
  0
LINE
  5
339
330
1E
100
AcDbEntity
  8
1
  6
Continuous
 62
     7
100
AcDbLine
 10
235.470391
 20
117.081082
 30
0.0
 11
235.470391
 21
126.281082
 31
0.0
  0
LINE
  5
33A
330
1E
100
AcDbEntity
  8
1
  6
Continuous
 62
     7
100
AcDbLine
 10
223.770391
 20
128.756082
 30
0.0
 11
223.770391
 21
128.8976179999999
 31
0.0
  0
LINE
  5
33B
330
1E
100
AcDbEntity
  8
1
  6
Continuous
 62
     7
100
AcDbLine
 10
221.2203909999999
 20
128.479745
 30
0.0
 11
223.270391
 21
128.479745
 31
0.0
  0
LINE
  5
33C
330
1E
100
AcDbEntity
  8
1
  6
Continuous
 62
     7
100
AcDbLine
 10
223.770391
 20
116.381082
 30
0.0
 11
223.770391
 21
128.756082
 31
0.0
  0
LINE
  5
33D
330
1E
100
AcDbEntity
  8
1
  6
Continuous
 62
     7
100
AcDbLine
 10
223.770391
 20
107.39906
 30
0.0
 11
223.770391
 21
116.381082
 31
0.0
  0
LINE
  5
33E
330
1E
100
AcDbEntity
  8
1
  6
Continuous
 62
     7
100
AcDbLine
 10
211.692273
 20
133.031082
 30
0.0
 11
211.636111
 21
133.031082
 31
0.0
  0
LINE
  5
33F
330
1E
100
AcDbEntity
  8
1
  6
Continuous
 62
     7
100
AcDbLine
 10
211.636111
 20
133.031082
 30
0.0
 11
210.3642279999999
 21
133.031082
 31
0.0
  0
LINE
  5
340
330
1E
100
AcDbEntity
  8
1
  6
Continuous
 62
     7
100
AcDbLine
 10
210.3642279999999
 20
133.031082
 30
0.0
 11
210.220391
 21
133.031082
 31
0.0
  0
LINE
  5
341
330
1E
100
AcDbEntity
  8
1
  6
Continuous
 62
     7
100
AcDbLine
 10
210.220391
 20
132.871917
 30
0.0
 11
210.220391
 21
133.031082
 31
0.0
  0
LINE
  5
342
330
1E
100
AcDbEntity
  8
1
  6
Continuous
 62
     7
100
AcDbLine
 10
214.97782
 20
132.0310819999999
 30
0.0
 11
215.00381
 21
132.0310819999999
 31
0.0
  0
LINE
  5
343
330
1E
100
AcDbEntity
  8
1
  6
Continuous
 62
     7
100
AcDbLine
 10
223.670391
 20
132.631082
 30
0.0
 11
223.020391
 21
132.631082
 31
0.0
  0
LINE
  5
344
330
1E
100
AcDbEntity
  8
1
  6
Continuous
 62
     7
100
AcDbLine
 10
223.020391
 20
132.631082
 30
0.0
 11
222.370391
 21
132.631082
 31
0.0
  0
LINE
  5
345
330
1E
100
AcDbEntity
  8
1
  6
Continuous
 62
     7
100
AcDbLine
 10
223.770391
 20
132.531082
 30
0.0
 11
223.020391
 21
132.531082
 31
0.0
  0
LINE
  5
346
330
1E
100
AcDbEntity
  8
1
  6
Continuous
 62
     7
100
AcDbLine
 10
223.020391
 20
132.531082
 30
0.0
 11
222.270391
 21
132.531082
 31
0.0
  0
LINE
  5
347
330
1E
100
AcDbEntity
  8
1
  6
Continuous
 62
     7
100
AcDbLine
 10
220.170391
 20
132.0310819999999
 30
0.0
 11
223.270391
 21
132.0310819999999
 31
0.0
  0
ARC
  5
348
330
1E
100
AcDbEntity
  8
1
  6
Continuous
 62
     7
100
AcDbCircle
 10
223.520391
 20
131.781082
 30
0.0
 40
0.25
100
AcDbArc
 50
0.0
 51
90.0
  0
LINE
  5
349
330
1E
100
AcDbEntity
  8
1
  6
Continuous
 62
     7
100
AcDbLine
 10
223.270391
 20
132.0310819999999
 30
0.0
 11
223.520391
 21
132.0310819999999
 31
0.0
  0
LINE
  5
34A
330
1E
100
AcDbEntity
  8
1
  6
Continuous
 62
     7
100
AcDbLine
 10
223.770391
 20
131.056261
 30
0.0
 11
223.770391
 21
131.781082
 31
0.0
  0
LINE
  5
34B
330
1E
100
AcDbEntity
  8
1
  6
Continuous
 62
     7
100
AcDbLine
 10
215.5581789999999
 20
132.0310819999999
 30
0.0
 11
220.170391
 21
132.0310819999999
 31
0.0
  0
LINE
  5
34C
330
1E
100
AcDbEntity
  8
1
  6
Continuous
 62
     7
100
AcDbLine
 10
223.770391
 20
130.299822
 30
0.0
 11
223.770391
 21
131.056261
 31
0.0
  0
LINE
  5
34D
330
1E
100
AcDbEntity
  8
1
  6
Continuous
 62
     7
100
AcDbLine
 10
223.770391
 20
128.8976179999999
 30
0.0
 11
223.770391
 21
130.299822
 31
0.0
  0
LINE
  5
34E
330
1E
100
AcDbEntity
  8
1
  6
Continuous
 62
     7
100
AcDbLine
 10
221.2203909999999
 20
128.623617
 30
0.0
 11
223.270391
 21
128.623617
 31
0.0
  0
LINE
  5
34F
330
1E
100
AcDbEntity
  8
1
  6
Continuous
 62
     7
100
AcDbLine
 10
221.2203909999999
 20
130.046984
 30
0.0
 11
221.2203909999999
 21
128.550054
 31
0.0
  0
LINE
  5
350
330
1E
100
AcDbEntity
  8
1
  6
Continuous
 62
     7
100
AcDbLine
 10
183.7203909999999
 20
128.1225819999999
 30
0.0
 11
183.7203909999999
 21
132.381082
 31
0.0
  0
LINE
  5
351
330
1E
100
AcDbEntity
  8
1
  6
Continuous
 62
     7
100
AcDbLine
 10
221.2203909999999
 20
128.550054
 30
0.0
 11
221.2203909999999
 21
114.381082
 31
0.0
  0
LINE
  5
352
330
1E
100
AcDbEntity
  8
1
  6
Continuous
 62
     7
100
AcDbLine
 10
183.7203909999999
 20
114.3810409999999
 30
0.0
 11
183.7203909999999
 21
114.8810459999999
 31
0.0
  0
LINE
  5
353
330
1E
100
AcDbEntity
  8
1
  6
Continuous
 62
     7
100
AcDbLine
 10
183.7203909999999
 20
114.8810459999999
 30
0.0
 11
183.7203909999999
 21
128.1225819999999
 31
0.0
  0
LINE
  5
354
330
1E
100
AcDbEntity
  8
1
  6
Continuous
 62
     7
100
AcDbLine
 10
188.396842
 20
125.8804379999999
 30
0.0
 11
188.258187
 21
123.234736
 31
0.0
  0
LINE
  5
355
330
1E
100
AcDbEntity
  8
1
  6
Continuous
 62
     7
100
AcDbLine
 10
216.6825939999999
 20
123.234736
 30
0.0
 11
216.543939
 21
125.8804379999999
 31
0.0
  0
LINE
  5
356
330
1E
100
AcDbEntity
  8
1
  6
Continuous
 62
     7
100
AcDbLine
 10
189.7203909999999
 20
128.25393
 30
0.0
 11
189.7203909999999
 21
132.881082
 31
0.0
  0
LINE
  5
357
330
1E
100
AcDbEntity
  8
1
  6
Continuous
 62
     7
100
AcDbLine
 10
209.720391
 20
132.881082
 30
0.0
 11
209.720391
 21
128.25393
 31
0.0
  0
LINE
  5
358
330
1E
100
AcDbEntity
  8
1
  6
Continuous
 62
     7
100
AcDbLine
 10
208.7203909999999
 20
127.609152
 30
0.0
 11
190.7203909999999
 21
127.609152
 31
0.0
  0
LINE
  5
359
330
1E
100
AcDbEntity
  8
1
  6
Continuous
 62
     7
100
AcDbLine
 10
215.5581789999999
 20
132.0310819999999
 30
0.0
 11
214.97642
 21
132.0310819999999
 31
0.0
  0
LINE
  5
35A
330
1E
100
AcDbEntity
  8
1
  6
Continuous
 62
     7
100
AcDbLine
 10
223.270391
 20
131.398702
 30
0.0
 11
220.170391
 21
131.398702
 31
0.0
  0
LINE
  5
35B
330
1E
100
AcDbEntity
  8
1
  6
Continuous
 62
     7
100
AcDbLine
 10
216.695702
 20
122.984624
 30
0.0
 11
216.6825939999999
 21
123.234736
 31
0.0
  0
LINE
  5
35C
330
1E
100
AcDbEntity
  8
1
  6
Continuous
 62
     7
100
AcDbLine
 10
188.258187
 20
123.234736
 30
0.0
 11
188.245079
 21
122.984624
 31
0.0
  0
LINE
  5
35D
330
1E
100
AcDbEntity
  8
1
  6
Continuous
 62
     7
100
AcDbLine
 10
188.245079
 20
122.984624
 30
0.0
 11
187.820391
 21
114.881082
 31
0.0
  0
LINE
  5
35E
330
1E
100
AcDbEntity
  8
1
  6
Continuous
 62
     7
100
AcDbLine
 10
217.120391
 20
114.881082
 30
0.0
 11
216.695702
 21
122.984624
 31
0.0
  0
LINE
  5
35F
330
1E
100
AcDbEntity
  8
1
  6
Continuous
 62
     7
100
AcDbLine
 10
184.2203909999999
 20
114.881082
 30
0.0
 11
184.7203909999999
 21
114.881082
 31
0.0
  0
LINE
  5
360
330
1E
100
AcDbEntity
  8
1
  6
Continuous
 62
     7
100
AcDbLine
 10
184.2203909999999
 20
114.881082
 30
0.0
 11
184.033587
 21
114.843924
 31
0.0
  0
LINE
  5
361
330
1E
100
AcDbEntity
  8
1
  6
Continuous
 62
     7
100
AcDbLine
 10
220.720391
 20
114.881082
 30
0.0
 11
220.9072519999999
 21
114.8439129999999
 31
0.0
  0
LINE
  5
362
330
1E
100
AcDbEntity
  8
1
  6
Continuous
 62
     7
100
AcDbLine
 10
220.720391
 20
114.881082
 30
0.0
 11
220.220391
 21
114.881082
 31
0.0
  0
LINE
  5
363
330
1E
100
AcDbEntity
  8
1
  6
Continuous
 62
     7
100
AcDbLine
 10
184.7203909999999
 20
114.881082
 30
0.0
 11
187.821007
 21
114.881082
 31
0.0
  0
LINE
  5
364
330
1E
100
AcDbEntity
  8
1
  6
Continuous
 62
     7
100
AcDbLine
 10
217.119774
 20
114.881082
 30
0.0
 11
220.220391
 21
114.881082
 31
0.0
  0
LINE
  5
365
330
1E
100
AcDbEntity
  8
1
  6
Continuous
 62
     7
100
AcDbLine
 10
183.7203909999999
 20
111.8810819999999
 30
0.0
 11
184.7203909999999
 21
111.8810819999999
 31
0.0
  0
LINE
  5
366
330
1E
100
AcDbEntity
  8
1
  6
Continuous
 62
     7
100
AcDbLine
 10
183.7442669999999
 20
114.3862439999999
 30
0.0
 11
183.7203909999999
 21
114.381082
 31
0.0
  0
LINE
  5
367
330
1E
100
AcDbEntity
  8
1
  6
Continuous
 62
     7
100
AcDbLine
 10
183.7203909999999
 20
114.381082
 30
0.0
 11
183.7203909999999
 21
111.8810819999999
 31
0.0
  0
LINE
  5
368
330
1E
100
AcDbEntity
  8
1
  6
Continuous
 62
     7
100
AcDbLine
 10
184.7203909999999
 20
111.8810819999999
 30
0.0
 11
220.220391
 21
111.8810819999999
 31
0.0
  0
LINE
  5
369
330
1E
100
AcDbEntity
  8
1
  6
Continuous
 62
     7
100
AcDbLine
 10
220.220391
 20
111.8810819999999
 30
0.0
 11
221.2203909999999
 21
111.8810819999999
 31
0.0
  0
LINE
  5
36A
330
1E
100
AcDbEntity
  8
1
  6
Continuous
 62
     7
100
AcDbLine
 10
221.2203909999999
 20
114.381082
 30
0.0
 11
221.2203909999999
 21
111.8810819999999
 31
0.0
  0
LINE
  5
36B
330
1E
100
AcDbEntity
  8
1
  6
Continuous
 62
     7
100
AcDbLine
 10
221.2203909999999
 20
114.381082
 30
0.0
 11
221.1970169999999
 21
114.386135
 31
0.0
  0
LINE
  5
36C
330
1E
100
AcDbEntity
  8
1
  6
Continuous
 62
     7
100
AcDbLine
 10
216.117885
 20
137.131082
 30
0.0
 11
216.161558
 21
137.131082
 31
0.0
  0
LINE
  5
36D
330
1E
100
AcDbEntity
  8
1
  6
Continuous
 62
     7
100
AcDbLine
 10
218.0819299999999
 20
137.131082
 30
0.0
 11
216.161558
 21
137.131082
 31
0.0
  0
LINE
  5
36E
330
1E
100
AcDbEntity
  8
1
  6
Continuous
 62
     7
100
AcDbLine
 10
217.6955169999999
 20
133.131082
 30
0.0
 11
217.6955169999999
 21
136.631082
 31
0.0
  0
LINE
  5
36F
330
1E
100
AcDbEntity
  8
1
  6
Continuous
 62
     7
100
AcDbLine
 10
220.3471669999999
 20
137.131082
 30
0.0
 11
218.0819299999999
 21
137.131082
 31
0.0
  0
LINE
  5
370
330
1E
100
AcDbEntity
  8
1
  6
Continuous
 62
     7
100
AcDbLine
 10
214.6272999999999
 20
132.131082
 30
0.0
 11
217.017614
 21
132.131082
 31
0.0
  0
LINE
  5
371
330
1E
100
AcDbEntity
  8
1
  6
Continuous
 62
     7
100
AcDbLine
 10
213.4037439999999
 20
133.131082
 30
0.0
 11
217.017614
 21
133.131082
 31
0.0
  0
LINE
  5
372
330
1E
100
AcDbEntity
  8
1
  6
Continuous
 62
     7
100
AcDbLine
 10
213.4037439999999
 20
133.131082
 30
0.0
 11
212.913408
 21
133.131082
 31
0.0
  0
LINE
  5
373
330
1E
100
AcDbEntity
  8
1
  6
Continuous
 62
     7
100
AcDbLine
 10
217.5739859999999
 20
132.131082
 30
0.0
 11
217.017614
 21
132.131082
 31
0.0
  0
LINE
  5
374
330
1E
100
AcDbEntity
  8
1
  6
Continuous
 62
     7
100
AcDbLine
 10
217.017614
 20
133.131082
 30
0.0
 11
217.759444
 21
133.131082
 31
0.0
  0
LINE
  5
375
330
1E
100
AcDbEntity
  8
1
  6
Continuous
 62
     7
100
AcDbLine
 10
221.054274
 20
137.131082
 30
0.0
 11
220.3471669999999
 21
137.131082
 31
0.0
  0
LINE
  5
376
330
1E
100
AcDbEntity
  8
1
  6
Continuous
 62
     7
100
AcDbLine
 10
220.261195
 20
132.131082
 30
0.0
 11
222.270391
 21
132.131082
 31
0.0
  0
LINE
  5
377
330
1E
100
AcDbEntity
  8
1
  6
Continuous
 62
     7
100
AcDbLine
 10
220.170391
 20
133.131082
 30
0.0
 11
223.4115829999999
 21
133.131082
 31
0.0
  0
LINE
  5
378
330
1E
100
AcDbEntity
  8
1
  6
Continuous
 62
     7
100
AcDbLine
 10
220.170391
 20
133.131082
 30
0.0
 11
217.759444
 21
133.131082
 31
0.0
  0
LINE
  5
379
330
1E
100
AcDbEntity
  8
1
  6
Continuous
 62
     7
100
AcDbLine
 10
183.7203909999999
 20
117.9591669999999
 30
0.0
 11
183.7203909999999
 21
114.8810459999999
 31
0.0
  0
LINE
  5
37A
330
1E
100
AcDbEntity
  8
1
  6
Continuous
 62
     7
100
AcDbLine
 10
179.9703909999999
 20
124.3810819999999
 30
0.0
 11
179.9703909999999
 21
103.825493
 31
0.0
  0
LINE
  5
37B
330
1E
100
AcDbEntity
  8
1
  6
Continuous
 62
     7
100
AcDbLine
 10
181.9703909999999
 20
107.9456039999999
 30
0.0
 11
181.9703909999999
 21
109.4810819999999
 31
0.0
  0
LINE
  5
37C
330
1E
100
AcDbEntity
  8
1
  6
Continuous
 62
     7
100
AcDbLine
 10
183.7203909999999
 20
106.25879
 30
0.0
 11
183.7203909999999
 21
104.246929
 31
0.0
  0
LINE
  5
37D
330
1E
100
AcDbEntity
  8
1
  6
Continuous
 62
     7
100
AcDbLine
 10
181.9703909999999
 20
107.9456039999999
 30
0.0
 11
181.9703909999999
 21
102.781082
 31
0.0
  0
LINE
  5
37E
330
1E
100
AcDbEntity
  8
1
  6
Continuous
 62
     7
100
AcDbLine
 10
183.7203909999999
 20
102.781082
 30
0.0
 11
181.9703909999999
 21
102.781082
 31
0.0
  0
LINE
  5
37F
330
1E
100
AcDbEntity
  8
1
  6
Continuous
 62
     7
100
AcDbLine
 10
118.6004139999999
 20
117.408127
 30
0.0
 11
118.6004139999999
 21
106.354037
 31
0.0
  0
LINE
  5
380
330
1E
100
AcDbEntity
  8
1
  6
Continuous
 62
     7
100
AcDbLine
 10
178.9703909999999
 20
99.381082
 30
0.0
 11
178.9703909999999
 21
124.3810819999999
 31
0.0
  0
LINE
  5
381
330
1E
100
AcDbEntity
  8
1
  6
Continuous
 62
     7
100
AcDbLine
 10
121.479785
 20
122.120685
 30
0.0
 11
121.479785
 21
101.641479
 31
0.0
  0
ARC
  5
382
330
1E
100
AcDbEntity
  8
1
  6
Continuous
 62
     7
100
AcDbCircle
 10
185.9703909999999
 20
111.6810819999999
 30
0.0
 40
4.363484999999999
100
AcDbArc
 50
86.715517
 51
93.28448299999999
  0
LINE
  5
383
330
1E
100
AcDbEntity
  8
1
  6
Continuous
 62
     7
100
AcDbLine
 10
185.7203909999999
 20
116.0373989999999
 30
0.0
 11
185.7203909999999
 21
116.167171
 31
0.0
  0
ARC
  5
384
330
1E
100
AcDbEntity
  8
1
  6
Continuous
 62
     7
100
AcDbCircle
 10
185.9703909999999
 20
111.6810819999999
 30
0.0
 40
4.49305
100
AcDbArc
 50
93.18966999999998
 51
104.1713469999999
  0
ARC
  5
385
330
1E
100
AcDbEntity
  8
1
  6
Continuous
 62
     7
100
AcDbCircle
 10
185.9703909999999
 20
111.6810819999999
 30
0.0
 40
4.49305
100
AcDbArc
 50
75.828653
 51
86.81033000000001
  0
LINE
  5
386
330
1E
100
AcDbEntity
  8
1
  6
Continuous
 62
     7
100
AcDbLine
 10
186.2203909999999
 20
116.167171
 30
0.0
 11
186.2203909999999
 21
116.0373989999999
 31
0.0
  0
ARC
  5
387
330
1E
100
AcDbEntity
  8
1
  6
Continuous
 62
     7
100
AcDbCircle
 10
218.9703909999999
 20
111.6810819999999
 30
0.0
 40
4.363484999999999
100
AcDbArc
 50
86.715517
 51
93.28448299999999
  0
LINE
  5
388
330
1E
100
AcDbEntity
  8
1
  6
Continuous
 62
     7
100
AcDbLine
 10
218.720391
 20
116.0373989999999
 30
0.0
 11
218.720391
 21
116.167171
 31
0.0
  0
ARC
  5
389
330
1E
100
AcDbEntity
  8
1
  6
Continuous
 62
     7
100
AcDbCircle
 10
218.9703909999999
 20
111.6810819999999
 30
0.0
 40
4.49305
100
AcDbArc
 50
93.18966999999998
 51
104.1713469999999
  0
ARC
  5
38A
330
1E
100
AcDbEntity
  8
1
  6
Continuous
 62
     7
100
AcDbCircle
 10
218.9703909999999
 20
111.6810819999999
 30
0.0
 40
4.49305
100
AcDbArc
 50
75.828653
 51
86.81033000000001
  0
LINE
  5
38B
330
1E
100
AcDbEntity
  8
1
  6
Continuous
 62
     7
100
AcDbLine
 10
219.2203909999999
 20
116.167171
 30
0.0
 11
219.2203909999999
 21
116.0373989999999
 31
0.0
  0
ARC
  5
38C
330
1E
100
AcDbEntity
  8
1
  6
Continuous
 62
     7
100
AcDbCircle
 10
185.1703909999999
 20
105.381082
 30
0.0
 40
4.363484999999999
100
AcDbArc
 50
176.715517
 51
183.2844829999999
  0
LINE
  5
38D
330
1E
100
AcDbEntity
  8
1
  6
Continuous
 62
     7
100
AcDbLine
 10
180.814073
 20
105.131082
 30
0.0
 11
180.684301
 21
105.131082
 31
0.0
  0
ARC
  5
38E
330
1E
100
AcDbEntity
  8
1
  6
Continuous
 62
     7
100
AcDbCircle
 10
185.1703909999999
 20
105.381082
 30
0.0
 40
4.49305
100
AcDbArc
 50
183.18967
 51
194.171347
  0
ARC
  5
38F
330
1E
100
AcDbEntity
  8
1
  6
Continuous
 62
     7
100
AcDbCircle
 10
185.1703909999999
 20
105.381082
 30
0.0
 40
4.49305
100
AcDbArc
 50
165.8286529999999
 51
176.8103299999999
  0
LINE
  5
390
330
1E
100
AcDbEntity
  8
1
  6
Continuous
 62
     7
100
AcDbLine
 10
180.684301
 20
105.6310819999999
 30
0.0
 11
180.814073
 21
105.6310819999999
 31
0.0
  0
LINE
  5
391
330
1E
100
AcDbEntity
  8
1
  6
Continuous
 62
     7
100
AcDbLine
 10
178.9703909999999
 20
104.7824459999999
 30
0.0
 11
178.9703909999999
 21
111.8810819999999
 31
0.0
  0
LINE
  5
392
330
1E
100
AcDbEntity
  8
1
  6
Continuous
 62
     7
100
AcDbLine
 10
178.9703909999999
 20
111.8810819999999
 30
0.0
 11
178.9703909999999
 21
124.3810819999999
 31
0.0
  0
LINE
  5
393
330
1E
100
AcDbEntity
  8
1
  6
Continuous
 62
     7
100
AcDbLine
 10
227.8156379999999
 20
107.131082
 30
0.0
 11
227.3674179999999
 21
107.5933749999999
 31
0.0
  0
LINE
  5
394
330
1E
100
AcDbEntity
  8
1
  6
Continuous
 62
     7
100
AcDbLine
 10
227.397931
 20
107.58906
 30
0.0
 11
223.770391
 21
107.701148
 31
0.0
  0
LINE
  5
395
330
1E
100
AcDbEntity
  8
1
  6
Continuous
 62
     7
100
AcDbLine
 10
221.2203909999999
 20
101.0310819999999
 30
0.0
 11
221.3703909999999
 21
101.0310819999999
 31
0.0
  0
LINE
  5
396
330
1E
100
AcDbEntity
  8
1
  6
Continuous
 62
     7
100
AcDbLine
 10
222.770391
 20
100.8810819999999
 30
0.0
 11
223.020391
 21
101.1310819999999
 31
0.0
  0
LINE
  5
397
330
1E
100
AcDbEntity
  8
1
  6
Continuous
 62
     7
100
AcDbLine
 10
221.3703909999999
 20
100.8810819999999
 30
0.0
 11
222.770391
 21
100.8810819999999
 31
0.0
  0
LINE
  5
398
330
1E
100
AcDbEntity
  8
1
  6
Continuous
 62
     7
100
AcDbLine
 10
223.738858
 20
107.206331
 30
0.0
 11
223.770391
 21
107.206331
 31
0.0
  0
LINE
  5
399
330
1E
100
AcDbEntity
  8
1
  6
Continuous
 62
     7
100
AcDbLine
 10
224.270391
 20
116.9310819999999
 30
0.0
 11
235.3203909999999
 21
116.9310819999999
 31
0.0
  0
LINE
  5
39A
330
1E
100
AcDbEntity
  8
1
  6
Continuous
 62
     7
100
AcDbLine
 10
235.3203909999999
 20
126.431082
 30
0.0
 11
224.270391
 21
126.431082
 31
0.0
  0
ARC
  5
39B
330
1E
100
AcDbEntity
  8
1
  6
Continuous
 62
     7
100
AcDbCircle
 10
235.3203909999999
 20
126.281082
 30
0.0
 40
0.15
100
AcDbArc
 50
0.0
 51
90.0
  0
ARC
  5
39C
330
1E
100
AcDbEntity
  8
1
  6
Continuous
 62
     7
100
AcDbCircle
 10
235.3203909999999
 20
117.081082
 30
0.0
 40
0.15
100
AcDbArc
 50
270.0
 51
0.0
  0
ARC
  5
39D
330
1E
100
AcDbEntity
  8
1
  6
Continuous
 62
     7
100
AcDbCircle
 10
224.270391
 20
126.931082
 30
0.0
 40
0.5
100
AcDbArc
 50
180.0
 51
270.0
  0
ARC
  5
39E
330
1E
100
AcDbEntity
  8
1
  6
Continuous
 62
     7
100
AcDbCircle
 10
224.270391
 20
116.431082
 30
0.0
 40
0.5
100
AcDbArc
 50
90.0
 51
180.0
  0
ARC
  5
39F
330
1E
100
AcDbEntity
  8
1
  6
Continuous
 62
     7
100
AcDbCircle
 10
223.270391
 20
107.381082
 30
0.0
 40
0.5
100
AcDbArc
 50
330.0
 51
0.0
  0
LINE
  5
3A0
330
1E
100
AcDbEntity
  8
1
  6
Continuous
 62
     7
100
AcDbLine
 10
211.692273
 20
132.881076
 30
0.0
 11
211.692273
 21
133.031082
 31
0.0
  0
LINE
  5
3A1
330
1E
100
AcDbEntity
  8
1
  6
Continuous
 62
     7
100
AcDbLine
 10
222.370391
 20
132.631082
 30
0.0
 11
222.270391
 21
132.531082
 31
0.0
  0
LINE
  5
3A2
330
1E
100
AcDbEntity
  8
1
  6
Continuous
 62
     7
100
AcDbLine
 10
223.770391
 20
132.531082
 30
0.0
 11
223.670391
 21
132.631082
 31
0.0
  0
LINE
  5
3A3
330
1E
100
AcDbEntity
  8
1
  6
Continuous
 62
     7
100
AcDbLine
 10
222.270391
 20
132.531082
 30
0.0
 11
222.270391
 21
132.0310819999999
 31
0.0
  0
LINE
  5
3A4
330
1E
100
AcDbEntity
  8
1
  6
Continuous
 62
     7
100
AcDbLine
 10
223.770391
 20
131.794221
 30
0.0
 11
223.770391
 21
132.531082
 31
0.0
  0
ARC
  5
3A5
330
1E
100
AcDbEntity
  8
1
  6
Continuous
 62
     7
100
AcDbCircle
 10
184.2203909999999
 20
132.381082
 30
0.0
 40
0.5
100
AcDbArc
 50
90.0
 51
180.0
  0
LINE
  5
3A6
330
1E
100
AcDbEntity
  8
1
  6
Continuous
 62
     7
100
AcDbLine
 10
209.720391
 20
132.731082
 30
0.0
 11
203.4703909999999
 21
132.731082
 31
0.0
  0
LINE
  5
3A7
330
1E
100
AcDbEntity
  8
1
  6
Continuous
 62
     7
100
AcDbLine
 10
201.4703909999999
 20
132.731082
 30
0.0
 11
189.7203909999999
 21
132.731082
 31
0.0
  0
LINE
  5
3A8
330
1E
100
AcDbEntity
  8
1
  6
Continuous
 62
     7
100
AcDbLine
 10
212.3203909999999
 20
132.881082
 30
0.0
 11
211.6910549999999
 21
132.881082
 31
0.0
  0
LINE
  5
3A9
330
1E
100
AcDbEntity
  8
1
  6
Continuous
 62
     7
100
AcDbLine
 10
210.220391
 20
132.881082
 30
0.0
 11
209.720391
 21
132.881082
 31
0.0
  0
LINE
  5
3AA
330
1E
100
AcDbEntity
  8
1
  6
Continuous
 62
     7
100
AcDbLine
 10
189.7203909999999
 20
132.881082
 30
0.0
 11
184.2203909999999
 21
132.881082
 31
0.0
  0
LINE
  5
3AB
330
1E
100
AcDbEntity
  8
1
  6
Continuous
 62
     7
100
AcDbLine
 10
215.6178849999999
 20
136.631082
 30
0.0
 11
215.6178849999999
 21
133.131082
 31
0.0
  0
ARC
  5
3AC
330
1E
100
AcDbEntity
  8
1
  6
Continuous
 62
     7
100
AcDbCircle
 10
216.117885
 20
136.631082
 30
0.0
 40
0.5
100
AcDbArc
 50
90.0
 51
180.0
  0
LINE
  5
3AD
330
1E
100
AcDbEntity
  8
1
  6
Continuous
 62
     7
100
AcDbLine
 10
212.520391
 20
132.881082
 30
0.0
 11
212.520391
 21
132.806748
 31
0.0
  0
ARC
  5
3AE
330
1E
100
AcDbEntity
  8
1
  6
Continuous
 62
     7
100
AcDbCircle
 10
212.770391
 20
132.881082
 30
0.0
 40
0.25
100
AcDbArc
 50
90.0
 51
180.0
  0
LINE
  5
3AF
330
1E
100
AcDbEntity
  8
1
  6
Continuous
 62
     7
100
AcDbLine
 10
222.554274
 20
133.131082
 30
0.0
 11
222.554274
 21
136.631082
 31
0.0
  0
ARC
  5
3B0
330
1E
100
AcDbEntity
  8
1
  6
Continuous
 62
     7
100
AcDbCircle
 10
222.054274
 20
136.631082
 30
0.0
 40
0.5
100
AcDbArc
 50
0.0
 51
90.0
  0
LINE
  5
3B1
330
1E
100
AcDbEntity
  8
1
  6
Continuous
 62
     7
100
AcDbLine
 10
223.670391
 20
132.631082
 30
0.0
 11
223.670391
 21
132.881082
 31
0.0
  0
ARC
  5
3B2
330
1E
100
AcDbEntity
  8
1
  6
Continuous
 62
     7
100
AcDbCircle
 10
223.420391
 20
132.881082
 30
0.0
 40
0.25
100
AcDbArc
 50
0.0
 51
90.0
  0
LINE
  5
3B3
330
1E
100
AcDbEntity
  8
1
  6
Continuous
 62
     7
100
AcDbLine
 10
183.7203909999999
 20
125.131082
 30
0.0
 11
180.9703909999999
 21
125.131082
 31
0.0
  0
LINE
  5
3B4
330
1E
100
AcDbEntity
  8
1
  6
Continuous
 62
     7
100
AcDbLine
 10
118.6004139999999
 20
106.354037
 30
0.0
 11
119.7071779999999
 21
103.6609129999999
 31
0.0
  0
LINE
  5
3B5
330
1E
100
AcDbEntity
  8
1
  6
Continuous
 62
     7
100
AcDbLine
 10
119.7071779999999
 20
120.10125
 30
0.0
 11
118.6004139999999
 21
117.408127
 31
0.0
  0
ARC
  5
3B6
330
1E
100
AcDbEntity
  8
1
  6
Continuous
 62
     7
100
AcDbCircle
 10
121.0945879999999
 20
104.2310819999999
 30
0.0
 40
1.5
100
AcDbArc
 50
202.3406479999999
 51
270.0
  0
ARC
  5
3B7
330
1E
100
AcDbEntity
  8
1
  6
Continuous
 62
     7
100
AcDbCircle
 10
121.0945879999999
 20
119.531082
 30
0.0
 40
1.5
100
AcDbArc
 50
90.0
 51
157.659352
  0
LINE
  5
3B8
330
1E
100
AcDbEntity
  8
1
  6
Continuous
 62
     7
100
AcDbLine
 10
121.0945879999999
 20
102.731082
 30
0.0
 11
121.479785
 21
102.731082
 31
0.0
  0
LINE
  5
3B9
330
1E
100
AcDbEntity
  8
1
  6
Continuous
 62
     7
100
AcDbLine
 10
121.479785
 20
121.031082
 30
0.0
 11
121.0945879999999
 21
121.031082
 31
0.0
  0
LINE
  5
3BA
330
1E
100
AcDbEntity
  8
1
  6
Continuous
 62
     7
100
AcDbLine
 10
166.661747
 20
102.331082
 30
0.0
 11
177.529333
 21
102.331082
 31
0.0
  0
LINE
  5
3BB
330
1E
100
AcDbEntity
  8
1
  6
Continuous
 62
     7
100
AcDbLine
 10
177.529333
 20
121.431082
 30
0.0
 11
166.661747
 21
121.431082
 31
0.0
  0
ARC
  5
3BC
330
1E
100
AcDbEntity
  8
1
  6
Continuous
 62
     7
100
AcDbCircle
 10
166.661747
 20
101.2310819999999
 30
0.0
 40
1.1
100
AcDbArc
 50
90.0
 51
115.641006
  0
ARC
  5
3BD
330
1E
100
AcDbEntity
  8
1
  6
Continuous
 62
     7
100
AcDbCircle
 10
166.661747
 20
122.531082
 30
0.0
 40
1.1
100
AcDbArc
 50
244.3589939999999
 51
270.0
  0
LINE
  5
3BE
330
1E
100
AcDbEntity
  8
1
  6
Continuous
 62
     7
100
AcDbLine
 10
166.1857429999999
 20
121.5394059999999
 30
0.0
 11
164.219159
 21
122.4833659999999
 31
0.0
  0
LINE
  5
3BF
330
1E
100
AcDbEntity
  8
1
  6
Continuous
 62
     7
100
AcDbLine
 10
164.219159
 20
101.2787969999999
 30
0.0
 11
166.1857429999999
 21
102.222757
 31
0.0
  0
LINE
  5
3C0
330
1E
100
AcDbEntity
  8
1
  6
Continuous
 62
     7
100
AcDbLine
 10
121.479785
 20
101.641479
 30
0.0
 11
123.5068429999999
 21
101.17007
 31
0.0
  0
LINE
  5
3C1
330
1E
100
AcDbEntity
  8
1
  6
Continuous
 62
     7
100
AcDbLine
 10
123.5068429999999
 20
122.5920939999999
 30
0.0
 11
121.479785
 21
122.120685
 31
0.0
  0
ARC
  5
3C2
330
1E
100
AcDbEntity
  8
1
  6
Continuous
 62
     7
100
AcDbCircle
 10
123.8466129999999
 20
102.6310819999999
 30
0.0
 40
1.5
100
AcDbArc
 50
256.908107
 51
270.0
  0
ARC
  5
3C3
330
1E
100
AcDbEntity
  8
1
  6
Continuous
 62
     7
100
AcDbCircle
 10
123.8466129999999
 20
121.131082
 30
0.0
 40
1.5
100
AcDbArc
 50
90.0
 51
103.0918929999999
  0
ARC
  5
3C4
330
1E
100
AcDbEntity
  8
1
  6
Continuous
 62
     7
100
AcDbCircle
 10
163.5700629999999
 20
102.6310819999999
 30
0.0
 40
1.5
100
AcDbArc
 50
270.0
 51
295.6410059999999
  0
ARC
  5
3C5
330
1E
100
AcDbEntity
  8
1
  6
Continuous
 62
     7
100
AcDbCircle
 10
163.5700629999999
 20
121.131082
 30
0.0
 40
1.5
100
AcDbArc
 50
64.358994
 51
90.0
  0
LINE
  5
3C6
330
1E
100
AcDbEntity
  8
1
  6
Continuous
 62
     7
100
AcDbLine
 10
123.8466129999999
 20
101.1310819999999
 30
0.0
 11
163.5700629999999
 21
101.1310819999999
 31
0.0
  0
LINE
  5
3C7
330
1E
100
AcDbEntity
  8
1
  6
Continuous
 62
     7
100
AcDbLine
 10
163.5700629999999
 20
122.631082
 30
0.0
 11
123.8466129999999
 21
122.631082
 31
0.0
  0
ARC
  5
3C8
330
1E
100
AcDbEntity
  8
1
  6
Continuous
 62
     7
100
AcDbCircle
 10
184.916885
 20
115.384138
 30
0.0
 40
0.65
100
AcDbArc
 50
105.88085
 51
175.0
  0
ARC
  5
3C9
330
1E
100
AcDbEntity
  8
1
  6
Continuous
 62
     7
100
AcDbCircle
 10
187.023896
 20
115.384138
 30
0.0
 40
0.65
100
AcDbArc
 50
5.0
 51
74.11915
  0
LINE
  5
3CA
330
1E
100
AcDbEntity
  8
1
  6
Continuous
 62
     7
100
AcDbLine
 10
184.269359
 20
115.4407889999999
 30
0.0
 11
184.2203909999999
 21
114.881082
 31
0.0
  0
LINE
  5
3CB
330
1E
100
AcDbEntity
  8
1
  6
Continuous
 62
     7
100
AcDbLine
 10
187.7203909999999
 20
114.881082
 30
0.0
 11
187.671423
 21
115.4407889999999
 31
0.0
  0
ARC
  5
3CC
330
1E
100
AcDbEntity
  8
1
  6
Continuous
 62
     7
100
AcDbCircle
 10
217.9168849999999
 20
115.384138
 30
0.0
 40
0.65
100
AcDbArc
 50
105.88085
 51
175.0
  0
ARC
  5
3CD
330
1E
100
AcDbEntity
  8
1
  6
Continuous
 62
     7
100
AcDbCircle
 10
220.023896
 20
115.384138
 30
0.0
 40
0.65
100
AcDbArc
 50
5.0
 51
74.11915
  0
LINE
  5
3CE
330
1E
100
AcDbEntity
  8
1
  6
Continuous
 62
     7
100
AcDbLine
 10
217.2693589999999
 20
115.4407889999999
 30
0.0
 11
217.2203909999999
 21
114.881082
 31
0.0
  0
LINE
  5
3CF
330
1E
100
AcDbEntity
  8
1
  6
Continuous
 62
     7
100
AcDbLine
 10
220.720391
 20
114.881082
 30
0.0
 11
220.671423
 21
115.4407889999999
 31
0.0
  0
ARC
  5
3D0
330
1E
100
AcDbEntity
  8
1
  6
Continuous
 62
     7
100
AcDbCircle
 10
181.467334
 20
104.3275759999999
 30
0.0
 40
0.65
100
AcDbArc
 50
195.88085
 51
265.0
  0
ARC
  5
3D1
330
1E
100
AcDbEntity
  8
1
  6
Continuous
 62
     7
100
AcDbCircle
 10
181.467334
 20
106.434587
 30
0.0
 40
0.65
100
AcDbArc
 50
95.0
 51
164.1191499999999
  0
LINE
  5
3D2
330
1E
100
AcDbEntity
  8
1
  6
Continuous
 62
     7
100
AcDbLine
 10
181.410683
 20
103.68005
 30
0.0
 11
181.9703909999999
 21
103.6310819999999
 31
0.0
  0
LINE
  5
3D3
330
1E
100
AcDbEntity
  8
1
  6
Continuous
 62
     7
100
AcDbLine
 10
181.9703909999999
 20
107.131082
 30
0.0
 11
181.410683
 21
107.0821139999999
 31
0.0
  0
LINE
  5
3D4
330
1E
100
AcDbEntity
  8
1
  6
Continuous
 62
     7
100
AcDbLine
 10
221.2013879999999
 20
114.386103
 30
0.0
 11
221.185899
 21
114.533779
 31
0.0
  0
LINE
  5
3D5
330
1E
100
AcDbEntity
  8
1
  6
Continuous
 62
     7
100
AcDbLine
 10
221.185899
 20
114.533779
 30
0.0
 11
221.1254049999999
 21
114.668356
 31
0.0
  0
LINE
  5
3D6
330
1E
100
AcDbEntity
  8
1
  6
Continuous
 62
     7
100
AcDbLine
 10
221.1254049999999
 20
114.668356
 30
0.0
 11
221.024821
 21
114.7769899999999
 31
0.0
  0
LINE
  5
3D7
330
1E
100
AcDbEntity
  8
1
  6
Continuous
 62
     7
100
AcDbLine
 10
221.024821
 20
114.7769899999999
 30
0.0
 11
220.89297
 21
114.849755
 31
0.0
  0
LINE
  5
3D8
330
1E
100
AcDbEntity
  8
1
  6
Continuous
 62
     7
100
AcDbLine
 10
184.034307
 20
114.8445649999999
 30
0.0
 11
183.907823
 21
114.7703879999999
 31
0.0
  0
LINE
  5
3D9
330
1E
100
AcDbEntity
  8
1
  6
Continuous
 62
     7
100
AcDbLine
 10
183.907823
 20
114.7703879999999
 30
0.0
 11
183.811984
 21
114.662507
 31
0.0
  0
LINE
  5
3DA
330
1E
100
AcDbEntity
  8
1
  6
Continuous
 62
     7
100
AcDbLine
 10
183.811984
 20
114.662507
 30
0.0
 11
183.754616
 21
114.530457
 31
0.0
  0
LINE
  5
3DB
330
1E
100
AcDbEntity
  8
1
  6
Continuous
 62
     7
100
AcDbLine
 10
183.754616
 20
114.530457
 30
0.0
 11
183.740208
 21
114.386209
 31
0.0
  0
LINE
  5
3DC
330
1E
100
AcDbEntity
  8
1
  6
Continuous
 62
     7
100
AcDbLine
 10
217.6955169999999
 20
136.631082
 30
0.0
 11
217.7029419999999
 21
136.7286269999999
 31
0.0
  0
LINE
  5
3DD
330
1E
100
AcDbEntity
  8
1
  6
Continuous
 62
     7
100
AcDbLine
 10
217.7029419999999
 20
136.7286269999999
 30
0.0
 11
217.724931
 21
136.822424
 31
0.0
  0
LINE
  5
3DE
330
1E
100
AcDbEntity
  8
1
  6
Continuous
 62
     7
100
AcDbLine
 10
217.724931
 20
136.822424
 30
0.0
 11
217.760639
 21
136.9088669999999
 31
0.0
  0
LINE
  5
3DF
330
1E
100
AcDbEntity
  8
1
  6
Continuous
 62
     7
100
AcDbLine
 10
217.760639
 20
136.9088669999999
 30
0.0
 11
217.808695
 21
136.9846349999999
 31
0.0
  0
LINE
  5
3E0
330
1E
100
AcDbEntity
  8
1
  6
Continuous
 62
     7
100
AcDbLine
 10
217.808695
 20
136.9846349999999
 30
0.0
 11
217.86725
 21
137.046817
 31
0.0
  0
LINE
  5
3E1
330
1E
100
AcDbEntity
  8
1
  6
Continuous
 62
     7
100
AcDbLine
 10
217.86725
 20
137.046817
 30
0.0
 11
217.9340559999999
 21
137.0930219999999
 31
0.0
  0
LINE
  5
3E2
330
1E
100
AcDbEntity
  8
1
  6
Continuous
 62
     7
100
AcDbLine
 10
217.9340559999999
 20
137.0930219999999
 30
0.0
 11
218.0065439999999
 21
137.121474
 31
0.0
  0
LINE
  5
3E3
330
1E
100
AcDbEntity
  8
1
  6
Continuous
 62
     7
100
AcDbLine
 10
218.0065439999999
 20
137.121474
 30
0.0
 11
218.0819299999999
 21
137.131082
 31
0.0
  0
LINE
  5
3E4
330
1E
100
AcDbEntity
  8
1
  6
Continuous
 62
     7
100
AcDbLine
 10
216.645908
 20
114.40725
 30
0.0
 11
216.735434
 21
114.5009839999999
 31
0.0
  0
LINE
  5
3E5
330
1E
100
AcDbEntity
  8
1
  6
Continuous
 62
     7
100
AcDbLine
 10
216.735434
 20
114.5009839999999
 30
0.0
 11
216.8217439999999
 21
114.590412
 31
0.0
  0
LINE
  5
3E6
330
1E
100
AcDbEntity
  8
1
  6
Continuous
 62
     7
100
AcDbLine
 10
216.8217439999999
 20
114.590412
 30
0.0
 11
216.901738
 21
114.6723209999999
 31
0.0
  0
LINE
  5
3E7
330
1E
100
AcDbEntity
  8
1
  6
Continuous
 62
     7
100
AcDbLine
 10
216.901738
 20
114.6723209999999
 30
0.0
 11
216.972544
 21
114.743769
 31
0.0
  0
LINE
  5
3E8
330
1E
100
AcDbEntity
  8
1
  6
Continuous
 62
     7
100
AcDbLine
 10
216.972544
 20
114.743769
 30
0.0
 11
217.0316169999999
 21
114.80219
 31
0.0
  0
LINE
  5
3E9
330
1E
100
AcDbEntity
  8
1
  6
Continuous
 62
     7
100
AcDbLine
 10
217.0316169999999
 20
114.80219
 30
0.0
 11
217.076837
 21
114.845487
 31
0.0
  0
LINE
  5
3EA
330
1E
100
AcDbEntity
  8
1
  6
Continuous
 62
     7
100
AcDbLine
 10
217.076837
 20
114.845487
 30
0.0
 11
217.106579
 21
114.8721019999999
 31
0.0
  0
LINE
  5
3EB
330
1E
100
AcDbEntity
  8
1
  6
Continuous
 62
     7
100
AcDbLine
 10
217.106579
 20
114.8721019999999
 30
0.0
 11
217.119774
 21
114.881082
 31
0.0
  0
LINE
  5
3EC
330
1E
100
AcDbEntity
  8
1
  6
Continuous
 62
     7
100
AcDbLine
 10
187.821007
 20
114.881082
 30
0.0
 11
187.834202
 21
114.8721019999999
 31
0.0
  0
LINE
  5
3ED
330
1E
100
AcDbEntity
  8
1
  6
Continuous
 62
     7
100
AcDbLine
 10
187.834202
 20
114.8721019999999
 30
0.0
 11
187.863944
 21
114.845487
 31
0.0
  0
LINE
  5
3EE
330
1E
100
AcDbEntity
  8
1
  6
Continuous
 62
     7
100
AcDbLine
 10
187.863944
 20
114.845487
 30
0.0
 11
187.9091639999999
 21
114.80219
 31
0.0
  0
LINE
  5
3EF
330
1E
100
AcDbEntity
  8
1
  6
Continuous
 62
     7
100
AcDbLine
 10
187.9091639999999
 20
114.80219
 30
0.0
 11
187.968237
 21
114.743769
 31
0.0
  0
LINE
  5
3F0
330
1E
100
AcDbEntity
  8
1
  6
Continuous
 62
     7
100
AcDbLine
 10
187.968237
 20
114.743769
 30
0.0
 11
188.039043
 21
114.6723209999999
 31
0.0
  0
LINE
  5
3F1
330
1E
100
AcDbEntity
  8
1
  6
Continuous
 62
     7
100
AcDbLine
 10
188.039043
 20
114.6723209999999
 30
0.0
 11
188.119037
 21
114.590412
 31
0.0
  0
LINE
  5
3F2
330
1E
100
AcDbEntity
  8
1
  6
Continuous
 62
     7
100
AcDbLine
 10
188.119037
 20
114.590412
 30
0.0
 11
188.2053469999999
 21
114.5009839999999
 31
0.0
  0
LINE
  5
3F3
330
1E
100
AcDbEntity
  8
1
  6
Continuous
 62
     7
100
AcDbLine
 10
188.2053469999999
 20
114.5009839999999
 30
0.0
 11
188.294873
 21
114.40725
 31
0.0
  0
LINE
  5
3F4
330
1E
100
AcDbEntity
  8
1
  6
Continuous
 62
     7
100
AcDbLine
 10
216.2880589999999
 20
131.781082
 30
0.0
 11
215.878738
 21
131.871529
 31
0.0
  0
LINE
  5
3F5
330
1E
100
AcDbEntity
  8
1
  6
Continuous
 62
     7
100
AcDbLine
 10
215.878738
 20
131.871529
 30
0.0
 11
215.531687
 21
131.980332
 31
0.0
  0
LINE
  5
3F6
330
1E
100
AcDbEntity
  8
1
  6
Continuous
 62
     7
100
AcDbLine
 10
215.531687
 20
131.980332
 30
0.0
 11
215.496524
 21
131.999897
 31
0.0
  0
LINE
  5
3F7
330
1E
100
AcDbEntity
  8
1
  6
Continuous
 62
     7
100
AcDbLine
 10
215.496524
 20
131.999897
 30
0.0
 11
215.486673
 21
132.0094149999999
 31
0.0
  0
LINE
  5
3F8
330
1E
100
AcDbEntity
  8
1
  6
Continuous
 62
     7
100
AcDbLine
 10
215.486673
 20
132.0094149999999
 30
0.0
 11
215.4852539999999
 21
132.017661
 31
0.0
  0
LINE
  5
3F9
330
1E
100
AcDbEntity
  8
1
  6
Continuous
 62
     7
100
AcDbLine
 10
215.4852539999999
 20
132.017661
 30
0.0
 11
215.4897229999999
 21
132.022269
 31
0.0
  0
LINE
  5
3FA
330
1E
100
AcDbEntity
  8
1
  6
Continuous
 62
     7
100
AcDbLine
 10
215.4897229999999
 20
132.022269
 30
0.0
 11
215.499589
 21
132.026179
 31
0.0
  0
LINE
  5
3FB
330
1E
100
AcDbEntity
  8
1
  6
Continuous
 62
     7
100
AcDbLine
 10
215.499589
 20
132.026179
 30
0.0
 11
215.511956
 21
132.028597
 31
0.0
  0
LINE
  5
3FC
330
1E
100
AcDbEntity
  8
1
  6
Continuous
 62
     7
100
AcDbLine
 10
215.511956
 20
132.028597
 30
0.0
 11
215.5356029999999
 21
132.0306229999999
 31
0.0
  0
LINE
  5
3FD
330
1E
100
AcDbEntity
  8
1
  6
Continuous
 62
     7
100
AcDbLine
 10
215.5356029999999
 20
132.0306229999999
 30
0.0
 11
215.5581789999999
 21
132.0310819999999
 31
0.0
  0
LINE
  5
3FE
330
1E
100
AcDbEntity
  8
1
  6
Continuous
 62
     7
100
AcDbLine
 10
220.170391
 20
131.398702
 30
0.0
 11
218.9381049999999
 21
131.4375649999999
 31
0.0
  0
LINE
  5
3FF
330
1E
100
AcDbEntity
  8
1
  6
Continuous
 62
     7
100
AcDbLine
 10
218.9381049999999
 20
131.4375649999999
 30
0.0
 11
217.7058189999999
 21
131.5536919999999
 31
0.0
  0
LINE
  5
400
330
1E
100
AcDbEntity
  8
1
  6
Continuous
 62
     7
100
AcDbLine
 10
217.7058189999999
 20
131.5536919999999
 30
0.0
 11
216.2880589999999
 21
131.781082
 31
0.0
  0
LINE
  5
401
330
1E
100
AcDbEntity
  8
1
  6
Continuous
 62
     7
100
AcDbLine
 10
214.9792609999999
 20
132.030559
 30
0.0
 11
213.864574
 21
132.3489229999999
 31
0.0
  0
LINE
  5
402
330
1E
100
AcDbEntity
  8
1
  6
Continuous
 62
     7
100
AcDbLine
 10
213.864574
 20
132.3489229999999
 30
0.0
 11
213.0251149999999
 21
132.62566
 31
0.0
  0
LINE
  5
403
330
1E
100
AcDbEntity
  8
1
  6
Continuous
 62
     7
100
AcDbLine
 10
213.0251149999999
 20
132.62566
 30
0.0
 11
212.499655
 21
132.8141879999999
 31
0.0
  0
LINE
  5
404
330
1E
100
AcDbEntity
  8
1
  6
Continuous
 62
     7
100
AcDbLine
 10
212.499655
 20
132.8141879999999
 30
0.0
 11
212.3203909999999
 21
132.881082
 31
0.0
  0
LINE
  5
405
330
1E
100
AcDbEntity
  8
1
  6
Continuous
 62
     7
100
AcDbLine
 10
190.7203909999999
 20
127.609152
 30
0.0
 11
190.3893919999999
 21
127.6464459999999
 31
0.0
  0
LINE
  5
406
330
1E
100
AcDbEntity
  8
1
  6
Continuous
 62
     7
100
AcDbLine
 10
190.3893919999999
 20
127.6464459999999
 30
0.0
 11
190.095709
 21
127.7534889999999
 31
0.0
  0
LINE
  5
407
330
1E
100
AcDbEntity
  8
1
  6
Continuous
 62
     7
100
AcDbLine
 10
190.095709
 20
127.7534889999999
 30
0.0
 11
189.872483
 21
127.916551
 31
0.0
  0
LINE
  5
408
330
1E
100
AcDbEntity
  8
1
  6
Continuous
 62
     7
100
AcDbLine
 10
189.872483
 20
127.916551
 30
0.0
 11
189.7448669999999
 21
128.11521
 31
0.0
  0
LINE
  5
409
330
1E
100
AcDbEntity
  8
1
  6
Continuous
 62
     7
100
AcDbLine
 10
189.7448669999999
 20
128.11521
 30
0.0
 11
189.7203909999999
 21
128.25393
 31
0.0
  0
LINE
  5
40A
330
1E
100
AcDbEntity
  8
1
  6
Continuous
 62
     7
100
AcDbLine
 10
209.720391
 20
128.25393
 30
0.0
 11
209.6641159999999
 21
128.044635
 31
0.0
  0
LINE
  5
40B
330
1E
100
AcDbEntity
  8
1
  6
Continuous
 62
     7
100
AcDbLine
 10
209.6641159999999
 20
128.044635
 30
0.0
 11
209.501507
 21
127.8555249999999
 31
0.0
  0
LINE
  5
40C
330
1E
100
AcDbEntity
  8
1
  6
Continuous
 62
     7
100
AcDbLine
 10
209.501507
 20
127.8555249999999
 30
0.0
 11
209.250997
 21
127.709709
 31
0.0
  0
LINE
  5
40D
330
1E
100
AcDbEntity
  8
1
  6
Continuous
 62
     7
100
AcDbLine
 10
209.250997
 20
127.709709
 30
0.0
 11
208.940648
 21
127.625414
 31
0.0
  0
LINE
  5
40E
330
1E
100
AcDbEntity
  8
1
  6
Continuous
 62
     7
100
AcDbLine
 10
208.940648
 20
127.625414
 30
0.0
 11
208.7203909999999
 21
127.609152
 31
0.0
  0
LINE
  5
40F
330
1E
100
AcDbEntity
  8
1
  6
Continuous
 62
     7
100
AcDbLine
 10
210.3642279999999
 20
132.8690689999999
 30
0.0
 11
210.332024
 21
132.8687469999999
 31
0.0
  0
LINE
  5
410
330
1E
100
AcDbEntity
  8
1
  6
Continuous
 62
     7
100
AcDbLine
 10
210.332024
 20
132.8687469999999
 30
0.0
 11
210.2985079999999
 21
132.868807
 31
0.0
  0
LINE
  5
411
330
1E
100
AcDbEntity
  8
1
  6
Continuous
 62
     7
100
AcDbLine
 10
210.2985079999999
 20
132.868807
 30
0.0
 11
210.267462
 21
132.8692379999999
 31
0.0
  0
LINE
  5
412
330
1E
100
AcDbEntity
  8
1
  6
Continuous
 62
     7
100
AcDbLine
 10
210.267462
 20
132.8692379999999
 30
0.0
 11
210.2423729999999
 21
132.869975
 31
0.0
  0
LINE
  5
413
330
1E
100
AcDbEntity
  8
1
  6
Continuous
 62
     7
100
AcDbLine
 10
210.2423729999999
 20
132.869975
 30
0.0
 11
210.226067
 21
132.87091
 31
0.0
  0
LINE
  5
414
330
1E
100
AcDbEntity
  8
1
  6
Continuous
 62
     7
100
AcDbLine
 10
210.226067
 20
132.87091
 30
0.0
 11
210.220391
 21
132.871917
 31
0.0
  0
LINE
  5
415
330
1E
100
AcDbEntity
  8
1
  6
Continuous
 62
     7
100
AcDbLine
 10
211.636111
 20
132.8808889999999
 30
0.0
 11
211.0000799999999
 21
132.8772699999999
 31
0.0
  0
LINE
  5
416
330
1E
100
AcDbEntity
  8
1
  6
Continuous
 62
     7
100
AcDbLine
 10
211.0000799999999
 20
132.8772699999999
 30
0.0
 11
210.3642279999999
 21
132.8690689999999
 31
0.0
  0
LINE
  5
417
330
1E
100
AcDbEntity
  8
1
  6
Continuous
 62
     7
100
AcDbLine
 10
211.6910549999999
 20
132.881076
 30
0.0
 11
211.689584
 21
132.881069
 31
0.0
  0
LINE
  5
418
330
1E
100
AcDbEntity
  8
1
  6
Continuous
 62
     7
100
AcDbLine
 10
211.689584
 20
132.881069
 30
0.0
 11
211.6764729999999
 21
132.8810119999999
 31
0.0
  0
LINE
  5
419
330
1E
100
AcDbEntity
  8
1
  6
Continuous
 62
     7
100
AcDbLine
 10
211.6764729999999
 20
132.8810119999999
 30
0.0
 11
211.653869
 21
132.880934
 31
0.0
  0
LINE
  5
41A
330
1E
100
AcDbEntity
  8
1
  6
Continuous
 62
     7
100
AcDbLine
 10
211.653869
 20
132.880934
 30
0.0
 11
211.636111
 21
132.8808889999999
 31
0.0
  0
LINE
  5
41B
330
1E
100
AcDbEntity
  8
1
  6
Continuous
 62
     7
100
AcDbLine
 10
216.044624
 20
126.19508
 30
0.0
 11
216.2527709999999
 21
126.1695749999999
 31
0.0
  0
LINE
  5
41C
330
1E
100
AcDbEntity
  8
1
  6
Continuous
 62
     7
100
AcDbLine
 10
216.2527709999999
 20
126.1695749999999
 30
0.0
 11
216.4230149999999
 21
126.087354
 31
0.0
  0
LINE
  5
41D
330
1E
100
AcDbEntity
  8
1
  6
Continuous
 62
     7
100
AcDbLine
 10
216.4230149999999
 20
126.087354
 30
0.0
 11
216.509345
 21
125.991571
 31
0.0
  0
LINE
  5
41E
330
1E
100
AcDbEntity
  8
1
  6
Continuous
 62
     7
100
AcDbLine
 10
216.509345
 20
125.991571
 30
0.0
 11
216.543939
 21
125.8804379999999
 31
0.0
  0
LINE
  5
41F
330
1E
100
AcDbEntity
  8
1
  6
Continuous
 62
     7
100
AcDbLine
 10
183.799301
 20
114.6333129999999
 30
0.0
 11
183.752892
 21
114.558411
 31
0.0
  0
LINE
  5
420
330
1E
100
AcDbEntity
  8
1
  6
Continuous
 62
     7
100
AcDbLine
 10
183.752892
 20
114.558411
 30
0.0
 11
183.7203909999999
 21
114.381082
 31
0.0
  0
LINE
  5
421
330
1E
100
AcDbEntity
  8
1
  6
Continuous
 62
     7
100
AcDbLine
 10
201.4703909999999
 20
132.731082
 30
0.0
 11
201.526686
 21
132.728458
 31
0.0
  0
LINE
  5
422
330
1E
100
AcDbEntity
  8
1
  6
Continuous
 62
     7
100
AcDbLine
 10
201.526686
 20
132.728458
 30
0.0
 11
201.6891929999999
 21
132.721734
 31
0.0
  0
LINE
  5
423
330
1E
100
AcDbEntity
  8
1
  6
Continuous
 62
     7
100
AcDbLine
 10
201.6891929999999
 20
132.721734
 30
0.0
 11
201.939807
 21
132.7138449999999
 31
0.0
  0
LINE
  5
424
330
1E
100
AcDbEntity
  8
1
  6
Continuous
 62
     7
100
AcDbLine
 10
201.939807
 20
132.7138449999999
 30
0.0
 11
202.2504159999999
 21
132.708249
 31
0.0
  0
LINE
  5
425
330
1E
100
AcDbEntity
  8
1
  6
Continuous
 62
     7
100
AcDbLine
 10
202.2504159999999
 20
132.708249
 30
0.0
 11
202.4703909999999
 21
132.707087
 31
0.0
  0
LINE
  5
426
330
1E
100
AcDbEntity
  8
1
  6
Continuous
 62
     7
100
AcDbLine
 10
202.4703909999999
 20
132.707087
 30
0.0
 11
202.80118
 21
132.709714
 31
0.0
  0
LINE
  5
427
330
1E
100
AcDbEntity
  8
1
  6
Continuous
 62
     7
100
AcDbLine
 10
202.80118
 20
132.709714
 30
0.0
 11
203.094674
 21
132.716442
 31
0.0
  0
LINE
  5
428
330
1E
100
AcDbEntity
  8
1
  6
Continuous
 62
     7
100
AcDbLine
 10
203.094674
 20
132.716442
 30
0.0
 11
203.318023
 21
132.72433
 31
0.0
  0
LINE
  5
429
330
1E
100
AcDbEntity
  8
1
  6
Continuous
 62
     7
100
AcDbLine
 10
203.318023
 20
132.72433
 30
0.0
 11
203.445896
 21
132.7299209999999
 31
0.0
  0
LINE
  5
42A
330
1E
100
AcDbEntity
  8
1
  6
Continuous
 62
     7
100
AcDbLine
 10
203.445896
 20
132.7299209999999
 30
0.0
 11
203.4703909999999
 21
132.731082
 31
0.0
  0
LINE
  5
42B
330
1E
100
AcDbEntity
  8
1
  6
Continuous
 62
     7
100
AcDbLine
 10
203.4703909999999
 20
132.731082
 30
0.0
 11
203.439437
 21
132.7296389999999
 31
0.0
  0
LINE
  5
42C
330
1E
100
AcDbEntity
  8
1
  6
Continuous
 62
     7
100
AcDbLine
 10
221.1672169999999
 20
130.299823
 30
0.0
 11
221.087441
 21
130.4390559999999
 31
0.0
  0
LINE
  5
42D
330
1E
100
AcDbEntity
  8
1
  6
Continuous
 62
     7
100
AcDbLine
 10
221.087441
 20
130.4390559999999
 30
0.0
 11
220.967745
 21
130.579159
 31
0.0
  0
LINE
  5
42E
330
1E
100
AcDbEntity
  8
1
  6
Continuous
 62
     7
100
AcDbLine
 10
220.967745
 20
130.579159
 30
0.0
 11
220.720391
 21
130.74906
 31
0.0
  0
LINE
  5
42F
330
1E
100
AcDbEntity
  8
1
  6
Continuous
 62
     7
100
AcDbLine
 10
221.167216
 20
130.299822
 30
0.0
 11
221.2183399999999
 21
130.098015
 31
0.0
  0
LINE
  5
430
330
1E
100
AcDbEntity
  8
1
  6
Continuous
 62
     7
100
AcDbLine
 10
221.2183399999999
 20
130.098015
 30
0.0
 11
221.2203909999999
 21
130.046984
 31
0.0
  0
LINE
  5
431
330
1E
100
AcDbEntity
  8
1
  6
Continuous
 62
     7
100
AcDbLine
 10
223.270391
 20
128.623617
 30
0.0
 11
223.4202509999999
 21
128.63664
 31
0.0
  0
LINE
  5
432
330
1E
100
AcDbEntity
  8
1
  6
Continuous
 62
     7
100
AcDbLine
 10
223.4202509999999
 20
128.63664
 30
0.0
 11
223.5528749999999
 21
128.672933
 31
0.0
  0
LINE
  5
433
330
1E
100
AcDbEntity
  8
1
  6
Continuous
 62
     7
100
AcDbLine
 10
223.5528749999999
 20
128.672933
 30
0.0
 11
223.66225
 21
128.729702
 31
0.0
  0
LINE
  5
434
330
1E
100
AcDbEntity
  8
1
  6
Continuous
 62
     7
100
AcDbLine
 10
223.66225
 20
128.729702
 30
0.0
 11
223.7410569999999
 21
128.8072949999999
 31
0.0
  0
LINE
  5
435
330
1E
100
AcDbEntity
  8
1
  6
Continuous
 62
     7
100
AcDbLine
 10
223.7410569999999
 20
128.8072949999999
 30
0.0
 11
223.770391
 21
128.8976179999999
 31
0.0
  0
LINE
  5
436
330
1E
100
AcDbEntity
  8
1
  6
Continuous
 62
     7
100
AcDbLine
 10
223.770391
 20
131.056261
 30
0.0
 11
223.7378779999999
 21
131.178424
 31
0.0
  0
LINE
  5
437
330
1E
100
AcDbEntity
  8
1
  6
Continuous
 62
     7
100
AcDbLine
 10
223.7378779999999
 20
131.178424
 30
0.0
 11
223.639563
 21
131.287875
 31
0.0
  0
LINE
  5
438
330
1E
100
AcDbEntity
  8
1
  6
Continuous
 62
     7
100
AcDbLine
 10
223.639563
 20
131.287875
 30
0.0
 11
223.5626319999999
 21
131.334549
 31
0.0
  0
LINE
  5
439
330
1E
100
AcDbEntity
  8
1
  6
Continuous
 62
     7
100
AcDbLine
 10
223.5626319999999
 20
131.334549
 30
0.0
 11
223.4776009999999
 21
131.368159
 31
0.0
  0
LINE
  5
43A
330
1E
100
AcDbEntity
  8
1
  6
Continuous
 62
     7
100
AcDbLine
 10
223.4776009999999
 20
131.368159
 30
0.0
 11
223.37564
 21
131.391064
 31
0.0
  0
LINE
  5
43B
330
1E
100
AcDbEntity
  8
1
  6
Continuous
 62
     7
100
AcDbLine
 10
223.37564
 20
131.391064
 30
0.0
 11
223.270391
 21
131.398702
 31
0.0
  0
LINE
  5
43C
330
1E
100
AcDbEntity
  8
1
  6
Continuous
 62
     7
100
AcDbLine
 10
223.270391
 20
128.479745
 30
0.0
 11
223.420035
 21
128.492841
 31
0.0
  0
LINE
  5
43D
330
1E
100
AcDbEntity
  8
1
  6
Continuous
 62
     7
100
AcDbLine
 10
223.420035
 20
128.492841
 30
0.0
 11
223.552459
 21
128.5293259999999
 31
0.0
  0
LINE
  5
43E
330
1E
100
AcDbEntity
  8
1
  6
Continuous
 62
     7
100
AcDbLine
 10
223.552459
 20
128.5293259999999
 30
0.0
 11
223.6617709999999
 21
128.586407
 31
0.0
  0
LINE
  5
43F
330
1E
100
AcDbEntity
  8
1
  6
Continuous
 62
     7
100
AcDbLine
 10
223.6617709999999
 20
128.586407
 30
0.0
 11
223.740758
 21
128.6645429999999
 31
0.0
  0
LINE
  5
440
330
1E
100
AcDbEntity
  8
1
  6
Continuous
 62
     7
100
AcDbLine
 10
223.740758
 20
128.6645429999999
 30
0.0
 11
223.770391
 21
128.756082
 31
0.0
  0
LINE
  5
441
330
1E
100
AcDbEntity
  8
1
  6
Continuous
 62
     7
100
AcDbLine
 10
227.3706359999999
 20
107.352497
 30
0.0
 11
227.3717009999999
 21
107.531854
 31
0.0
  0
LINE
  5
442
330
1E
100
AcDbEntity
  8
1
  6
Continuous
 62
     7
100
AcDbLine
 10
227.3717009999999
 20
107.531854
 30
0.0
 11
227.370789
 21
107.589898
 31
0.0
  0
LINE
  5
443
330
1E
100
AcDbEntity
  8
1
  6
Continuous
 62
     7
100
AcDbLine
 10
227.370789
 20
107.589898
 30
0.0
 11
227.370789
 21
107.5898479999999
 31
0.0
  0
LINE
  5
444
330
1E
100
AcDbEntity
  8
1
  6
Continuous
 62
     7
100
AcDbLine
 10
217.5739859999999
 20
132.881082
 30
0.0
 11
217.5775499999999
 21
132.929854
 31
0.0
  0
LINE
  5
445
330
1E
100
AcDbEntity
  8
1
  6
Continuous
 62
     7
100
AcDbLine
 10
217.5775499999999
 20
132.929854
 30
0.0
 11
217.5881029999999
 21
132.976753
 31
0.0
  0
LINE
  5
446
330
1E
100
AcDbEntity
  8
1
  6
Continuous
 62
     7
100
AcDbLine
 10
217.5881029999999
 20
132.976753
 30
0.0
 11
217.6052419999999
 21
133.0199739999999
 31
0.0
  0
LINE
  5
447
330
1E
100
AcDbEntity
  8
1
  6
Continuous
 62
     7
100
AcDbLine
 10
217.6052419999999
 20
133.0199739999999
 30
0.0
 11
217.628306
 21
133.057858
 31
0.0
  0
LINE
  5
448
330
1E
100
AcDbEntity
  8
1
  6
Continuous
 62
     7
100
AcDbLine
 10
217.628306
 20
133.057858
 30
0.0
 11
217.6564089999999
 21
133.0889489999999
 31
0.0
  0
LINE
  5
449
330
1E
100
AcDbEntity
  8
1
  6
Continuous
 62
     7
100
AcDbLine
 10
217.6564089999999
 20
133.0889489999999
 30
0.0
 11
217.688472
 21
133.112052
 31
0.0
  0
LINE
  5
44A
330
1E
100
AcDbEntity
  8
1
  6
Continuous
 62
     7
100
AcDbLine
 10
217.688472
 20
133.112052
 30
0.0
 11
217.723263
 21
133.126278
 31
0.0
  0
LINE
  5
44B
330
1E
100
AcDbEntity
  8
1
  6
Continuous
 62
     7
100
AcDbLine
 10
217.723263
 20
133.126278
 30
0.0
 11
217.759444
 21
133.131082
 31
0.0
  0
LINE
  5
44C
330
1E
100
AcDbEntity
  8
1
  6
Continuous
 62
     7
100
AcDbLine
 10
219.993614
 20
136.631082
 30
0.0
 11
220.0004069999999
 21
136.7286269999999
 31
0.0
  0
LINE
  5
44D
330
1E
100
AcDbEntity
  8
1
  6
Continuous
 62
     7
100
AcDbLine
 10
220.0004069999999
 20
136.7286269999999
 30
0.0
 11
220.020527
 21
136.822424
 31
0.0
  0
LINE
  5
44E
330
1E
100
AcDbEntity
  8
1
  6
Continuous
 62
     7
100
AcDbLine
 10
220.020527
 20
136.822424
 30
0.0
 11
220.053198
 21
136.9088669999999
 31
0.0
  0
LINE
  5
44F
330
1E
100
AcDbEntity
  8
1
  6
Continuous
 62
     7
100
AcDbLine
 10
220.053198
 20
136.9088669999999
 30
0.0
 11
220.0971669999999
 21
136.9846349999999
 31
0.0
  0
LINE
  5
450
330
1E
100
AcDbEntity
  8
1
  6
Continuous
 62
     7
100
AcDbLine
 10
220.0971669999999
 20
136.9846349999999
 30
0.0
 11
220.1507439999999
 21
137.046817
 31
0.0
  0
LINE
  5
451
330
1E
100
AcDbEntity
  8
1
  6
Continuous
 62
     7
100
AcDbLine
 10
220.1507439999999
 20
137.046817
 30
0.0
 11
220.211868
 21
137.0930219999999
 31
0.0
  0
LINE
  5
452
330
1E
100
AcDbEntity
  8
1
  6
Continuous
 62
     7
100
AcDbLine
 10
220.211868
 20
137.0930219999999
 30
0.0
 11
220.278192
 21
137.121474
 31
0.0
  0
LINE
  5
453
330
1E
100
AcDbEntity
  8
1
  6
Continuous
 62
     7
100
AcDbLine
 10
220.278192
 20
137.121474
 30
0.0
 11
220.3471669999999
 21
137.131082
 31
0.0
  0
LINE
  5
454
330
1E
100
AcDbEntity
  8
1
  6
Continuous
 62
     7
100
AcDbLine
 10
212.668239
 20
132.881082
 30
0.0
 11
212.6729499999999
 21
132.929854
 31
0.0
  0
LINE
  5
455
330
1E
100
AcDbEntity
  8
1
  6
Continuous
 62
     7
100
AcDbLine
 10
212.6729499999999
 20
132.929854
 30
0.0
 11
212.6869019999999
 21
132.976753
 31
0.0
  0
LINE
  5
456
330
1E
100
AcDbEntity
  8
1
  6
Continuous
 62
     7
100
AcDbLine
 10
212.6869019999999
 20
132.976753
 30
0.0
 11
212.709558
 21
133.0199739999999
 31
0.0
  0
LINE
  5
457
330
1E
100
AcDbEntity
  8
1
  6
Continuous
 62
     7
100
AcDbLine
 10
212.709558
 20
133.0199739999999
 30
0.0
 11
212.7400479999999
 21
133.057858
 31
0.0
  0
LINE
  5
458
330
1E
100
AcDbEntity
  8
1
  6
Continuous
 62
     7
100
AcDbLine
 10
212.7400479999999
 20
133.057858
 30
0.0
 11
212.7771999999999
 21
133.0889489999999
 31
0.0
  0
LINE
  5
459
330
1E
100
AcDbEntity
  8
1
  6
Continuous
 62
     7
100
AcDbLine
 10
212.7771999999999
 20
133.0889489999999
 30
0.0
 11
212.8195859999999
 21
133.112052
 31
0.0
  0
LINE
  5
45A
330
1E
100
AcDbEntity
  8
1
  6
Continuous
 62
     7
100
AcDbLine
 10
212.8195859999999
 20
133.112052
 30
0.0
 11
212.8655779999999
 21
133.126278
 31
0.0
  0
LINE
  5
45B
330
1E
100
AcDbEntity
  8
1
  6
Continuous
 62
     7
100
AcDbLine
 10
212.8655779999999
 20
133.126278
 30
0.0
 11
212.913408
 21
133.131082
 31
0.0
  0
LINE
  5
45C
330
1E
100
AcDbEntity
  8
1
  6
Continuous
 62
     7
100
AcDbLine
 10
215.748904
 20
136.631082
 30
0.0
 11
215.756833
 21
136.7286269999999
 31
0.0
  0
LINE
  5
45D
330
1E
100
AcDbEntity
  8
1
  6
Continuous
 62
     7
100
AcDbLine
 10
215.756833
 20
136.7286269999999
 30
0.0
 11
215.780316
 21
136.822424
 31
0.0
  0
LINE
  5
45E
330
1E
100
AcDbEntity
  8
1
  6
Continuous
 62
     7
100
AcDbLine
 10
215.780316
 20
136.822424
 30
0.0
 11
215.818449
 21
136.9088669999999
 31
0.0
  0
LINE
  5
45F
330
1E
100
AcDbEntity
  8
1
  6
Continuous
 62
     7
100
AcDbLine
 10
215.818449
 20
136.9088669999999
 30
0.0
 11
215.869768
 21
136.9846349999999
 31
0.0
  0
LINE
  5
460
330
1E
100
AcDbEntity
  8
1
  6
Continuous
 62
     7
100
AcDbLine
 10
215.869768
 20
136.9846349999999
 30
0.0
 11
215.9323
 21
137.046817
 31
0.0
  0
LINE
  5
461
330
1E
100
AcDbEntity
  8
1
  6
Continuous
 62
     7
100
AcDbLine
 10
215.9323
 20
137.046817
 30
0.0
 11
216.0036419999999
 21
137.0930219999999
 31
0.0
  0
LINE
  5
462
330
1E
100
AcDbEntity
  8
1
  6
Continuous
 62
     7
100
AcDbLine
 10
216.0036419999999
 20
137.0930219999999
 30
0.0
 11
216.0810529999999
 21
137.121474
 31
0.0
  0
LINE
  5
463
330
1E
100
AcDbEntity
  8
1
  6
Continuous
 62
     7
100
AcDbLine
 10
216.0810529999999
 20
137.121474
 30
0.0
 11
216.161558
 21
137.131082
 31
0.0
  0
LINE
  5
464
330
1E
100
AcDbEntity
  8
1
  6
Continuous
 62
     7
100
AcDbLine
 10
221.1970169999999
 20
114.386135
 30
0.0
 11
221.1909229999999
 21
114.387453
 31
0.0
  0
LINE
  5
465
330
1E
100
AcDbEntity
  8
1
  6
Continuous
 62
     7
100
AcDbLine
 10
221.1909229999999
 20
114.387453
 30
0.0
 11
221.1184799999999
 21
114.3926949999999
 31
0.0
  0
LINE
  5
466
330
1E
100
AcDbEntity
  8
1
  6
Continuous
 62
     7
100
AcDbLine
 10
221.1184799999999
 20
114.3926949999999
 30
0.0
 11
220.927497
 21
114.399585
 31
0.0
  0
LINE
  5
467
330
1E
100
AcDbEntity
  8
1
  6
Continuous
 62
     7
100
AcDbLine
 10
220.927497
 20
114.399585
 30
0.0
 11
220.769237
 21
114.402974
 31
0.0
  0
LINE
  5
468
330
1E
100
AcDbEntity
  8
1
  6
Continuous
 62
     7
100
AcDbLine
 10
220.769237
 20
114.402974
 30
0.0
 11
220.5931179999999
 21
114.4053949999999
 31
0.0
  0
LINE
  5
469
330
1E
100
AcDbEntity
  8
1
  6
Continuous
 62
     7
100
AcDbLine
 10
220.5931179999999
 20
114.4053949999999
 30
0.0
 11
220.220391
 21
114.40725
 31
0.0
  0
LINE
  5
46A
330
1E
100
AcDbEntity
  8
1
  6
Continuous
 62
     7
100
AcDbLine
 10
184.7203909999999
 20
114.40725
 30
0.0
 11
184.347667
 21
114.4053949999999
 31
0.0
  0
LINE
  5
46B
330
1E
100
AcDbEntity
  8
1
  6
Continuous
 62
     7
100
AcDbLine
 10
184.347667
 20
114.4053949999999
 30
0.0
 11
184.1715459999999
 21
114.402974
 31
0.0
  0
LINE
  5
46C
330
1E
100
AcDbEntity
  8
1
  6
Continuous
 62
     7
100
AcDbLine
 10
184.1715459999999
 20
114.402974
 30
0.0
 11
184.013284
 21
114.399585
 31
0.0
  0
LINE
  5
46D
330
1E
100
AcDbEntity
  8
1
  6
Continuous
 62
     7
100
AcDbLine
 10
184.013284
 20
114.399585
 30
0.0
 11
183.8223069999999
 21
114.3926959999999
 31
0.0
  0
LINE
  5
46E
330
1E
100
AcDbEntity
  8
1
  6
Continuous
 62
     7
100
AcDbLine
 10
183.8223069999999
 20
114.3926959999999
 30
0.0
 11
183.749861
 21
114.387453
 31
0.0
  0
LINE
  5
46F
330
1E
100
AcDbEntity
  8
1
  6
Continuous
 62
     7
100
AcDbLine
 10
183.749861
 20
114.387453
 30
0.0
 11
183.7442669999999
 21
114.3862439999999
 31
0.0
  0
LINE
  5
470
330
1E
100
AcDbEntity
  8
1
  6
Continuous
 62
     7
100
AcDbLine
 10
216.695702
 20
122.984624
 30
0.0
 11
216.657302
 21
122.9926089999999
 31
0.0
  0
LINE
  5
471
330
1E
100
AcDbEntity
  8
1
  6
Continuous
 62
     7
100
AcDbLine
 10
216.657302
 20
122.9926089999999
 30
0.0
 11
216.548974
 21
122.995412
 31
0.0
  0
LINE
  5
472
330
1E
100
AcDbEntity
  8
1
  6
Continuous
 62
     7
100
AcDbLine
 10
216.548974
 20
122.995412
 30
0.0
 11
216.3871509999999
 21
122.9926089999999
 31
0.0
  0
LINE
  5
473
330
1E
100
AcDbEntity
  8
1
  6
Continuous
 62
     7
100
AcDbLine
 10
216.3871509999999
 20
122.9926089999999
 30
0.0
 11
216.196387
 21
122.984624
 31
0.0
  0
LINE
  5
474
330
1E
100
AcDbEntity
  8
1
  6
Continuous
 62
     7
100
AcDbLine
 10
188.7443939999999
 20
122.984624
 30
0.0
 11
188.55363
 21
122.9926089999999
 31
0.0
  0
LINE
  5
475
330
1E
100
AcDbEntity
  8
1
  6
Continuous
 62
     7
100
AcDbLine
 10
188.55363
 20
122.9926089999999
 30
0.0
 11
188.3918079999999
 21
122.995412
 31
0.0
  0
LINE
  5
476
330
1E
100
AcDbEntity
  8
1
  6
Continuous
 62
     7
100
AcDbLine
 10
188.3918079999999
 20
122.995412
 30
0.0
 11
188.283479
 21
122.9926089999999
 31
0.0
  0
LINE
  5
477
330
1E
100
AcDbEntity
  8
1
  6
Continuous
 62
     7
100
AcDbLine
 10
188.283479
 20
122.9926089999999
 30
0.0
 11
188.245079
 21
122.984624
 31
0.0
  0
LINE
  5
478
330
1E
100
AcDbEntity
  8
1
  6
Continuous
 62
     7
100
AcDbLine
 10
216.196387
 20
122.984624
 30
0.0
 11
216.189833
 21
123.245807
 31
0.0
  0
LINE
  5
479
330
1E
100
AcDbEntity
  8
1
  6
Continuous
 62
     7
100
AcDbLine
 10
188.750948
 20
123.245807
 30
0.0
 11
188.7443939999999
 21
122.984624
 31
0.0
  0
LINE
  5
47A
330
1E
100
AcDbEntity
  8
1
  6
Continuous
 62
     7
100
AcDbLine
 10
216.044624
 20
126.19508
 30
0.0
 11
216.160115
 21
127.2059429999999
 31
0.0
  0
LINE
  5
47B
330
1E
100
AcDbEntity
  8
1
  6
Continuous
 62
     7
100
AcDbLine
 10
216.160115
 20
127.2059429999999
 30
0.0
 11
216.6723189999999
 21
128.087262
 31
0.0
  0
LINE
  5
47C
330
1E
100
AcDbEntity
  8
1
  6
Continuous
 62
     7
100
AcDbLine
 10
216.6723189999999
 20
128.087262
 30
0.0
 11
217.1118729999999
 21
128.452135
 31
0.0
  0
LINE
  5
47D
330
1E
100
AcDbEntity
  8
1
  6
Continuous
 62
     7
100
AcDbLine
 10
217.1118729999999
 20
128.452135
 30
0.0
 11
217.643559
 21
128.7186139999999
 31
0.0
  0
LINE
  5
47E
330
1E
100
AcDbEntity
  8
1
  6
Continuous
 62
     7
100
AcDbLine
 10
217.643559
 20
128.7186139999999
 30
0.0
 11
218.281802
 21
128.8944159999999
 31
0.0
  0
LINE
  5
47F
330
1E
100
AcDbEntity
  8
1
  6
Continuous
 62
     7
100
AcDbLine
 10
218.281802
 20
128.8944159999999
 30
0.0
 11
218.9703909999999
 21
128.956614
 31
0.0
  0
LINE
  5
480
330
1E
100
AcDbEntity
  8
1
  6
Continuous
 62
     7
100
AcDbLine
 10
216.183279
 20
123.4848479999999
 30
0.0
 11
216.1105
 21
124.907531
 31
0.0
  0
LINE
  5
481
330
1E
100
AcDbEntity
  8
1
  6
Continuous
 62
     7
100
AcDbLine
 10
216.1105
 20
124.907531
 30
0.0
 11
216.044624
 21
126.19508
 31
0.0
  0
LINE
  5
482
330
1E
100
AcDbEntity
  8
1
  6
Continuous
 62
     7
100
AcDbLine
 10
188.896157
 20
126.19508
 30
0.0
 11
188.830282
 21
124.907531
 31
0.0
  0
LINE
  5
483
330
1E
100
AcDbEntity
  8
1
  6
Continuous
 62
     7
100
AcDbLine
 10
188.830282
 20
124.907531
 30
0.0
 11
188.7575019999999
 21
123.4848479999999
 31
0.0
  0
LINE
  5
484
330
1E
100
AcDbEntity
  8
1
  6
Continuous
 62
     7
100
AcDbLine
 10
184.2217409999999
 20
128.5185629999999
 30
0.0
 11
185.005485
 21
128.8364239999999
 31
0.0
  0
LINE
  5
485
330
1E
100
AcDbEntity
  8
1
  6
Continuous
 62
     7
100
AcDbLine
 10
185.005485
 20
128.8364239999999
 30
0.0
 11
185.923565
 21
128.9562929999999
 31
0.0
  0
LINE
  5
486
330
1E
100
AcDbEntity
  8
1
  6
Continuous
 62
     7
100
AcDbLine
 10
185.923565
 20
128.9562929999999
 30
0.0
 11
186.8481859999999
 21
128.857819
 31
0.0
  0
LINE
  5
487
330
1E
100
AcDbEntity
  8
1
  6
Continuous
 62
     7
100
AcDbLine
 10
186.8481859999999
 20
128.857819
 30
0.0
 11
187.651452
 21
128.55749
 31
0.0
  0
LINE
  5
488
330
1E
100
AcDbEntity
  8
1
  6
Continuous
 62
     7
100
AcDbLine
 10
187.651452
 20
128.55749
 30
0.0
 11
187.9767929999999
 21
128.348433
 31
0.0
  0
LINE
  5
489
330
1E
100
AcDbEntity
  8
1
  6
Continuous
 62
     7
100
AcDbLine
 10
187.9767929999999
 20
128.348433
 30
0.0
 11
188.258586
 21
128.0981719999999
 31
0.0
  0
LINE
  5
48A
330
1E
100
AcDbEntity
  8
1
  6
Continuous
 62
     7
100
AcDbLine
 10
188.258586
 20
128.0981719999999
 30
0.0
 11
188.4782519999999
 21
127.8297399999999
 31
0.0
  0
LINE
  5
48B
330
1E
100
AcDbEntity
  8
1
  6
Continuous
 62
     7
100
AcDbLine
 10
188.4782519999999
 20
127.8297399999999
 30
0.0
 11
188.653975
 21
127.528193
 31
0.0
  0
LINE
  5
48C
330
1E
100
AcDbEntity
  8
1
  6
Continuous
 62
     7
100
AcDbLine
 10
188.653975
 20
127.528193
 30
0.0
 11
188.857796
 21
126.88474
 31
0.0
  0
LINE
  5
48D
330
1E
100
AcDbEntity
  8
1
  6
Continuous
 62
     7
100
AcDbLine
 10
188.857796
 20
126.88474
 30
0.0
 11
188.896157
 21
126.19508
 31
0.0
  0
LINE
  5
48E
330
1E
100
AcDbEntity
  8
1
  6
Continuous
 62
     7
100
AcDbLine
 10
188.896157
 20
126.19508
 30
0.0
 11
188.709152
 21
126.1751889999999
 31
0.0
  0
LINE
  5
48F
330
1E
100
AcDbEntity
  8
1
  6
Continuous
 62
     7
100
AcDbLine
 10
188.709152
 20
126.1751889999999
 30
0.0
 11
188.5492219999999
 21
126.109254
 31
0.0
  0
LINE
  5
490
330
1E
100
AcDbEntity
  8
1
  6
Continuous
 62
     7
100
AcDbLine
 10
188.5492219999999
 20
126.109254
 30
0.0
 11
188.4403429999999
 21
126.0057999999999
 31
0.0
  0
LINE
  5
491
330
1E
100
AcDbEntity
  8
1
  6
Continuous
 62
     7
100
AcDbLine
 10
188.4403429999999
 20
126.0057999999999
 30
0.0
 11
188.396842
 21
125.8804379999999
 31
0.0
  0
LINE
  5
492
330
1E
100
AcDbEntity
  8
1
  6
Continuous
 62
     7
100
AcDbLine
 10
216.543939
 20
125.8804379999999
 30
0.0
 11
216.6584789999999
 21
126.9598419999999
 31
0.0
  0
LINE
  5
493
330
1E
100
AcDbEntity
  8
1
  6
Continuous
 62
     7
100
AcDbLine
 10
216.6584789999999
 20
126.9598419999999
 30
0.0
 11
217.051855
 21
127.7272879999999
 31
0.0
  0
LINE
  5
494
330
1E
100
AcDbEntity
  8
1
  6
Continuous
 62
     7
100
AcDbLine
 10
217.051855
 20
127.7272879999999
 30
0.0
 11
217.438504
 21
128.098693
 31
0.0
  0
LINE
  5
495
330
1E
100
AcDbEntity
  8
1
  6
Continuous
 62
     7
100
AcDbLine
 10
217.438504
 20
128.098693
 30
0.0
 11
217.904176
 21
128.363984
 31
0.0
  0
LINE
  5
496
330
1E
100
AcDbEntity
  8
1
  6
Continuous
 62
     7
100
AcDbLine
 10
217.904176
 20
128.363984
 30
0.0
 11
218.4240149999999
 21
128.52316
 31
0.0
  0
LINE
  5
497
330
1E
100
AcDbEntity
  8
1
  6
Continuous
 62
     7
100
AcDbLine
 10
218.4240149999999
 20
128.52316
 30
0.0
 11
218.9703909999999
 21
128.576222
 31
0.0
  0
LINE
  5
498
330
1E
100
AcDbEntity
  8
1
  6
Continuous
 62
     7
100
AcDbLine
 10
184.5081449999999
 20
128.148422
 30
0.0
 11
185.1817229999999
 21
128.463919
 31
0.0
  0
LINE
  5
499
330
1E
100
AcDbEntity
  8
1
  6
Continuous
 62
     7
100
AcDbLine
 10
185.1817229999999
 20
128.463919
 30
0.0
 11
185.55213
 21
128.5453659999999
 31
0.0
  0
LINE
  5
49A
330
1E
100
AcDbEntity
  8
1
  6
Continuous
 62
     7
100
AcDbLine
 10
185.55213
 20
128.5453659999999
 30
0.0
 11
185.932591
 21
128.5759439999999
 31
0.0
  0
LINE
  5
49B
330
1E
100
AcDbEntity
  8
1
  6
Continuous
 62
     7
100
AcDbLine
 10
185.932591
 20
128.5759439999999
 30
0.0
 11
186.3153989999999
 21
128.555495
 31
0.0
  0
LINE
  5
49C
330
1E
100
AcDbEntity
  8
1
  6
Continuous
 62
     7
100
AcDbLine
 10
186.3153989999999
 20
128.555495
 30
0.0
 11
186.6899399999999
 21
128.483787
 31
0.0
  0
LINE
  5
49D
330
1E
100
AcDbEntity
  8
1
  6
Continuous
 62
     7
100
AcDbLine
 10
186.6899399999999
 20
128.483787
 30
0.0
 11
187.3759749999999
 21
128.186587
 31
0.0
  0
LINE
  5
49E
330
1E
100
AcDbEntity
  8
1
  6
Continuous
 62
     7
100
AcDbLine
 10
187.3759749999999
 20
128.186587
 30
0.0
 11
187.631056
 21
127.9958639999999
 31
0.0
  0
LINE
  5
49F
330
1E
100
AcDbEntity
  8
1
  6
Continuous
 62
     7
100
AcDbLine
 10
187.631056
 20
127.9958639999999
 30
0.0
 11
187.85806
 21
127.764823
 31
0.0
  0
LINE
  5
4A0
330
1E
100
AcDbEntity
  8
1
  6
Continuous
 62
     7
100
AcDbLine
 10
187.85806
 20
127.764823
 30
0.0
 11
188.2064169999999
 21
127.181786
 31
0.0
  0
LINE
  5
4A1
330
1E
100
AcDbEntity
  8
1
  6
Continuous
 62
     7
100
AcDbLine
 10
188.2064169999999
 20
127.181786
 30
0.0
 11
188.322324
 21
126.8135379999999
 31
0.0
  0
LINE
  5
4A2
330
1E
100
AcDbEntity
  8
1
  6
Continuous
 62
     7
100
AcDbLine
 10
188.322324
 20
126.8135379999999
 30
0.0
 11
188.390108
 21
126.3797559999999
 31
0.0
  0
LINE
  5
4A3
330
1E
100
AcDbEntity
  8
1
  6
Continuous
 62
     7
100
AcDbLine
 10
188.390108
 20
126.3797559999999
 30
0.0
 11
188.396842
 21
125.8804379999999
 31
0.0
  0
LINE
  5
4A4
330
1E
100
AcDbEntity
  8
1
  6
Continuous
 62
     7
100
AcDbLine
 10
184.2203909999999
 20
128.5187169999999
 30
0.0
 11
184.304674
 21
128.451124
 31
0.0
  0
LINE
  5
4A5
330
1E
100
AcDbEntity
  8
1
  6
Continuous
 62
     7
100
AcDbLine
 10
184.304674
 20
128.451124
 30
0.0
 11
184.383917
 21
128.363204
 31
0.0
  0
LINE
  5
4A6
330
1E
100
AcDbEntity
  8
1
  6
Continuous
 62
     7
100
AcDbLine
 10
184.383917
 20
128.363204
 30
0.0
 11
184.4617419999999
 21
128.244599
 31
0.0
  0
LINE
  5
4A7
330
1E
100
AcDbEntity
  8
1
  6
Continuous
 62
     7
100
AcDbLine
 10
184.4617419999999
 20
128.244599
 30
0.0
 11
184.507387
 21
128.14875
 31
0.0
  0
LINE
  5
4A8
330
1E
100
AcDbEntity
  8
1
  6
Continuous
 62
     7
100
AcDbLine
 10
184.507387
 20
128.14875
 30
0.0
 11
184.3932829999999
 21
128.1526439999999
 31
0.0
  0
LINE
  5
4A9
330
1E
100
AcDbEntity
  8
1
  6
Continuous
 62
     7
100
AcDbLine
 10
184.3932829999999
 20
128.1526439999999
 30
0.0
 11
184.253282
 21
128.1544699999999
 31
0.0
  0
LINE
  5
4AA
330
1E
100
AcDbEntity
  8
1
  6
Continuous
 62
     7
100
AcDbLine
 10
184.253282
 20
128.1544699999999
 30
0.0
 11
184.1151289999999
 21
128.1538229999999
 31
0.0
  0
LINE
  5
4AB
330
1E
100
AcDbEntity
  8
1
  6
Continuous
 62
     7
100
AcDbLine
 10
184.1151289999999
 20
128.1538229999999
 30
0.0
 11
183.989629
 21
128.150932
 31
0.0
  0
LINE
  5
4AC
330
1E
100
AcDbEntity
  8
1
  6
Continuous
 62
     7
100
AcDbLine
 10
183.989629
 20
128.150932
 30
0.0
 11
183.880555
 21
128.1460229999999
 31
0.0
  0
LINE
  5
4AD
330
1E
100
AcDbEntity
  8
1
  6
Continuous
 62
     7
100
AcDbLine
 10
183.880555
 20
128.1460229999999
 30
0.0
 11
183.792968
 21
128.139164
 31
0.0
  0
LINE
  5
4AE
330
1E
100
AcDbEntity
  8
1
  6
Continuous
 62
     7
100
AcDbLine
 10
183.792968
 20
128.139164
 30
0.0
 11
183.7362169999999
 21
128.1303419999999
 31
0.0
  0
LINE
  5
4AF
330
1E
100
AcDbEntity
  8
1
  6
Continuous
 62
     7
100
AcDbLine
 10
183.7362169999999
 20
128.1303419999999
 30
0.0
 11
183.7203909999999
 21
128.1225819999999
 31
0.0
  0
LINE
  5
4B0
330
1E
100
AcDbEntity
  8
1
  6
Continuous
 62
     7
100
AcDbLine
 10
184.2203909999999
 20
128.5187169999999
 30
0.0
 11
184.1228449999999
 21
128.511105
 31
0.0
  0
LINE
  5
4B1
330
1E
100
AcDbEntity
  8
1
  6
Continuous
 62
     7
100
AcDbLine
 10
184.1228449999999
 20
128.511105
 30
0.0
 11
184.0290489999999
 21
128.4885629999999
 31
0.0
  0
LINE
  5
4B2
330
1E
100
AcDbEntity
  8
1
  6
Continuous
 62
     7
100
AcDbLine
 10
184.0290489999999
 20
128.4885629999999
 30
0.0
 11
183.942605
 21
128.4519559999999
 31
0.0
  0
LINE
  5
4B3
330
1E
100
AcDbEntity
  8
1
  6
Continuous
 62
     7
100
AcDbLine
 10
183.942605
 20
128.4519559999999
 30
0.0
 11
183.866837
 21
128.402692
 31
0.0
  0
LINE
  5
4B4
330
1E
100
AcDbEntity
  8
1
  6
Continuous
 62
     7
100
AcDbLine
 10
183.866837
 20
128.402692
 30
0.0
 11
183.804656
 21
128.3426629999999
 31
0.0
  0
LINE
  5
4B5
330
1E
100
AcDbEntity
  8
1
  6
Continuous
 62
     7
100
AcDbLine
 10
183.804656
 20
128.3426629999999
 30
0.0
 11
183.758451
 21
128.274176
 31
0.0
  0
LINE
  5
4B6
330
1E
100
AcDbEntity
  8
1
  6
Continuous
 62
     7
100
AcDbLine
 10
183.758451
 20
128.274176
 30
0.0
 11
183.729998
 21
128.1998639999999
 31
0.0
  0
LINE
  5
4B7
330
1E
100
AcDbEntity
  8
1
  6
Continuous
 62
     7
100
AcDbLine
 10
183.729998
 20
128.1998639999999
 30
0.0
 11
183.7203909999999
 21
128.1225819999999
 31
0.0
  0
LINE
  5
4B8
330
1E
100
AcDbEntity
  8
1
  6
Continuous
 62
     7
100
AcDbLine
 10
220.720391
 20
128.576222
 30
0.0
 11
220.8179359999999
 21
128.5757189999999
 31
0.0
  0
LINE
  5
4B9
330
1E
100
AcDbEntity
  8
1
  6
Continuous
 62
     7
100
AcDbLine
 10
220.8179359999999
 20
128.5757189999999
 30
0.0
 11
220.9117319999999
 21
128.57423
 31
0.0
  0
LINE
  5
4BA
330
1E
100
AcDbEntity
  8
1
  6
Continuous
 62
     7
100
AcDbLine
 10
220.9117319999999
 20
128.57423
 30
0.0
 11
220.9981759999999
 21
128.571812
 31
0.0
  0
LINE
  5
4BB
330
1E
100
AcDbEntity
  8
1
  6
Continuous
 62
     7
100
AcDbLine
 10
220.9981759999999
 20
128.571812
 30
0.0
 11
221.0739439999999
 21
128.568557
 31
0.0
  0
LINE
  5
4BC
330
1E
100
AcDbEntity
  8
1
  6
Continuous
 62
     7
100
AcDbLine
 10
221.0739439999999
 20
128.568557
 30
0.0
 11
221.1361249999999
 21
128.564592
 31
0.0
  0
LINE
  5
4BD
330
1E
100
AcDbEntity
  8
1
  6
Continuous
 62
     7
100
AcDbLine
 10
221.1361249999999
 20
128.564592
 30
0.0
 11
221.1823299999999
 21
128.5600679999999
 31
0.0
  0
LINE
  5
4BE
330
1E
100
AcDbEntity
  8
1
  6
Continuous
 62
     7
100
AcDbLine
 10
221.1823299999999
 20
128.5600679999999
 30
0.0
 11
221.210783
 21
128.555159
 31
0.0
  0
LINE
  5
4BF
330
1E
100
AcDbEntity
  8
1
  6
Continuous
 62
     7
100
AcDbLine
 10
221.210783
 20
128.555159
 30
0.0
 11
221.2203909999999
 21
128.550054
 31
0.0
  0
LINE
  5
4C0
330
1E
100
AcDbEntity
  8
1
  6
Continuous
 62
     7
100
AcDbLine
 10
220.720391
 20
128.956614
 30
0.0
 11
220.8179359999999
 21
128.948802
 31
0.0
  0
LINE
  5
4C1
330
1E
100
AcDbEntity
  8
1
  6
Continuous
 62
     7
100
AcDbLine
 10
220.8179359999999
 20
128.948802
 30
0.0
 11
220.9117319999999
 21
128.9256659999999
 31
0.0
  0
LINE
  5
4C2
330
1E
100
AcDbEntity
  8
1
  6
Continuous
 62
     7
100
AcDbLine
 10
220.9117319999999
 20
128.9256659999999
 30
0.0
 11
220.9981759999999
 21
128.8880959999999
 31
0.0
  0
LINE
  5
4C3
330
1E
100
AcDbEntity
  8
1
  6
Continuous
 62
     7
100
AcDbLine
 10
220.9981759999999
 20
128.8880959999999
 30
0.0
 11
221.0739439999999
 21
128.837535
 31
0.0
  0
LINE
  5
4C4
330
1E
100
AcDbEntity
  8
1
  6
Continuous
 62
     7
100
AcDbLine
 10
221.0739439999999
 20
128.837535
 30
0.0
 11
221.1361249999999
 21
128.775926
 31
0.0
  0
LINE
  5
4C5
330
1E
100
AcDbEntity
  8
1
  6
Continuous
 62
     7
100
AcDbLine
 10
221.1361249999999
 20
128.775926
 30
0.0
 11
221.1823299999999
 21
128.7056379999999
 31
0.0
  0
LINE
  5
4C6
330
1E
100
AcDbEntity
  8
1
  6
Continuous
 62
     7
100
AcDbLine
 10
221.1823299999999
 20
128.7056379999999
 30
0.0
 11
221.210783
 21
128.6293699999999
 31
0.0
  0
LINE
  5
4C7
330
1E
100
AcDbEntity
  8
1
  6
Continuous
 62
     7
100
AcDbLine
 10
221.210783
 20
128.6293699999999
 30
0.0
 11
221.2203909999999
 21
128.550054
 31
0.0
  0
LINE
  5
4C8
330
1E
100
AcDbEntity
  8
1
  6
Continuous
 62
     7
100
AcDbLine
 10
223.270391
 20
130.74906
 30
0.0
 11
223.367936
 21
130.740428
 31
0.0
  0
LINE
  5
4C9
330
1E
100
AcDbEntity
  8
1
  6
Continuous
 62
     7
100
AcDbLine
 10
223.367936
 20
130.740428
 30
0.0
 11
223.4617319999999
 21
130.7148639999999
 31
0.0
  0
LINE
  5
4CA
330
1E
100
AcDbEntity
  8
1
  6
Continuous
 62
     7
100
AcDbLine
 10
223.4617319999999
 20
130.7148639999999
 30
0.0
 11
223.5481759999999
 21
130.6733499999999
 31
0.0
  0
LINE
  5
4CB
330
1E
100
AcDbEntity
  8
1
  6
Continuous
 62
     7
100
AcDbLine
 10
223.5481759999999
 20
130.6733499999999
 30
0.0
 11
223.6239439999999
 21
130.6174809999999
 31
0.0
  0
LINE
  5
4CC
330
1E
100
AcDbEntity
  8
1
  6
Continuous
 62
     7
100
AcDbLine
 10
223.6239439999999
 20
130.6174809999999
 30
0.0
 11
223.686125
 21
130.549405
 31
0.0
  0
LINE
  5
4CD
330
1E
100
AcDbEntity
  8
1
  6
Continuous
 62
     7
100
AcDbLine
 10
223.686125
 20
130.549405
 30
0.0
 11
223.7323299999999
 21
130.4717379999999
 31
0.0
  0
LINE
  5
4CE
330
1E
100
AcDbEntity
  8
1
  6
Continuous
 62
     7
100
AcDbLine
 10
223.7323299999999
 20
130.4717379999999
 30
0.0
 11
223.7607829999999
 21
130.3874639999999
 31
0.0
  0
LINE
  5
4CF
330
1E
100
AcDbEntity
  8
1
  6
Continuous
 62
     7
100
AcDbLine
 10
223.7607829999999
 20
130.3874639999999
 30
0.0
 11
223.770391
 21
130.299822
 31
0.0
  0
LINE
  5
4D0
330
1E
100
AcDbEntity
  8
1
  6
Continuous
 62
     7
100
AcDbLine
 10
230.06136
 20
102.298597
 30
0.0
 11
229.652339
 21
101.6310819999999
 31
0.0
  0
LINE
  5
4D1
330
1E
100
AcDbEntity
  8
1
  6
Continuous
 62
     7
100
AcDbLine
 10
229.652339
 20
102.792831
 30
0.0
 11
230.06136
 21
102.298597
 31
0.0
  0
LINE
  5
4D2
330
1E
100
AcDbEntity
  8
1
  6
Continuous
 62
     7
100
AcDbLine
 10
230.0272749999999
 20
103.25298
 30
0.0
 11
229.652339
 21
102.792831
 31
0.0
  0
LINE
  5
4D3
330
1E
100
AcDbEntity
  8
1
  6
Continuous
 62
     7
100
AcDbLine
 10
229.6693819999999
 20
103.7472139999999
 30
0.0
 11
230.0272749999999
 21
103.25298
 31
0.0
  0
LINE
  5
4D4
330
1E
100
AcDbEntity
  8
1
  6
Continuous
 62
     7
100
AcDbLine
 10
230.010233
 20
104.463001
 30
0.0
 11
229.6693819999999
 21
103.7472139999999
 31
0.0
  0
LINE
  5
4D5
330
1E
100
AcDbEntity
  8
1
  6
Continuous
 62
     7
100
AcDbLine
 10
229.6693819999999
 20
104.8208939999999
 30
0.0
 11
230.010233
 21
104.463001
 31
0.0
  0
LINE
  5
4D6
330
1E
100
AcDbEntity
  8
1
  6
Continuous
 62
     7
100
AcDbLine
 10
230.0272749999999
 20
105.4514689999999
 30
0.0
 11
229.6693819999999
 21
104.8208939999999
 31
0.0
  0
LINE
  5
4D7
330
1E
100
AcDbEntity
  8
1
  6
Continuous
 62
     7
100
AcDbLine
 10
229.652339
 20
105.894575
 30
0.0
 11
230.0272749999999
 21
105.4514689999999
 31
0.0
  0
LINE
  5
4D8
330
1E
100
AcDbEntity
  8
1
  6
Continuous
 62
     7
100
AcDbLine
 10
230.010233
 20
106.303596
 30
0.0
 11
229.652339
 21
105.894575
 31
0.0
  0
LINE
  5
4D9
330
1E
100
AcDbEntity
  8
1
  6
Continuous
 62
     7
100
AcDbLine
 10
229.6693819999999
 20
106.780787
 30
0.0
 11
230.010233
 21
106.303596
 31
0.0
  0
LINE
  5
4DA
330
1E
100
AcDbEntity
  8
1
  6
Continuous
 62
     7
100
AcDbLine
 10
229.907977
 20
107.131082
 30
0.0
 11
229.6693819999999
 21
106.780787
 31
0.0
  0
LINE
  5
4DB
330
1E
100
AcDbEntity
  8
1
  6
Continuous
 62
     7
100
AcDbLine
 10
229.907977
 20
107.131082
 30
0.0
 11
221.2203909999999
 21
107.131082
 31
0.0
  0
LINE
  5
4DC
330
1E
100
AcDbEntity
  8
1
  6
Continuous
 62
     7
100
AcDbLine
 10
221.2203909999999
 20
101.6310819999999
 30
0.0
 11
229.652339
 21
101.6310819999999
 31
0.0
  0
LINE
  5
4DD
330
1E
100
AcDbEntity
  8
1
  6
DASHDOT
 62
     7
100
AcDbLine
 10
115.898239
 20
111.938172
 30
0.0
 11
229.990243
 21
111.938172
 31
0.0
  0
LINE
  5
4DE
330
1E
100
AcDbEntity
  8
1
  6
Continuous
 62
     7
100
AcDbLine
 10
178.570391
 20
99.381082
 30
0.0
 11
178.570391
 21
124.3810819999999
 31
0.0
  0
LINE
  5
4DF
330
1E
100
AcDbEntity
  8
1
  6
Continuous
 62
     7
100
AcDbLine
 10
221.2203909999999
 20
101.6310819999999
 30
0.0
 11
216.448924
 21
100.922103
 31
0.0
  0
LINE
  5
4E0
330
1E
100
AcDbEntity
  8
1
  6
Continuous
 62
     7
100
AcDbLine
 10
216.448924
 20
100.922103
 30
0.0
 11
216.1631709999999
 21
97.88108199999999
 31
0.0
  0
LINE
  5
4E1
330
1E
100
AcDbEntity
  8
1
  6
Continuous
 62
     7
100
AcDbLine
 10
183.7203909999999
 20
101.60791
 30
0.0
 11
188.502303
 21
100.922103
 31
0.0
  0
LINE
  5
4E2
330
1E
100
AcDbEntity
  8
1
  6
Continuous
 62
     7
100
AcDbLine
 10
188.502303
 20
100.922103
 30
0.0
 11
188.845206
 21
97.88108199999999
 31
0.0
  0
LINE
  5
4E3
330
1E
100
AcDbEntity
  8
1
  6
DASHDOT
 62
     7
100
AcDbLine
 10
218.9703909999999
 20
102.179416
 30
0.0
 11
218.9703909999999
 21
96.52151100000001
 31
0.0
  0
LINE
  5
4E4
330
1E
100
AcDbEntity
  8
1
  6
DASHDOT
 62
     7
100
AcDbLine
 10
185.9703909999999
 20
102.2365659999999
 30
0.0
 11
185.9703909999999
 21
96.86441399999999
 31
0.0
  0
LINE
  5
4E5
330
1E
100
AcDbEntity
  8
1
  6
Continuous
 62
     7
100
AcDbLine
 10
184.9703909999999
 20
101.42925
 30
0.0
 11
184.9703909999999
 21
97.88108199999999
 31
0.0
  0
LINE
  5
4E6
330
1E
100
AcDbEntity
  8
1
  6
Continuous
 62
     7
100
AcDbLine
 10
186.9703909999999
 20
101.126338
 30
0.0
 11
186.9703909999999
 21
97.88108199999999
 31
0.0
  0
LINE
  5
4E7
330
1E
100
AcDbEntity
  8
1
  6
Continuous
 62
     7
100
AcDbLine
 10
217.970391
 20
101.1655159999999
 30
0.0
 11
217.970391
 21
97.88108199999999
 31
0.0
  0
LINE
  5
4E8
330
1E
100
AcDbEntity
  8
1
  6
Continuous
 62
     7
100
AcDbLine
 10
219.970391
 20
101.4541739999999
 30
0.0
 11
219.970391
 21
97.88108199999999
 31
0.0
  0
LINE
  5
4E9
330
1E
100
AcDbEntity
  8
1
  6
Continuous
 62
     7
100
AcDbLine
 10
183.739807
 20
98.62325699999999
 30
0.0
 11
183.723179
 21
98.76257500000001
 31
0.0
  0
LINE
  5
4EA
330
1E
100
AcDbEntity
  8
1
  6
Continuous
 62
     7
100
AcDbLine
 10
184.716133
 20
97.88108199999999
 30
0.0
 11
184.7203909999999
 21
97.88108199999999
 31
0.0
  0
ARC
  5
4EB
330
1E
100
AcDbEntity
  8
1
  6
Continuous
 62
     7
100
AcDbCircle
 10
184.716133
 20
98.88108199999999
 30
0.0
 40
1.0
100
AcDbArc
 50
186.805936
 51
270.0
  0
LINE
  5
4EC
330
1E
100
AcDbEntity
  8
1
  6
Continuous
 62
     7
100
AcDbLine
 10
221.2203909999999
 20
98.88108199999999
 30
0.0
 11
221.2203909999999
 21
111.880184
 31
0.0
  0
ARC
  5
4ED
330
1E
100
AcDbEntity
  8
1
  6
Continuous
 62
     7
100
AcDbCircle
 10
220.220391
 20
98.88108199999999
 30
0.0
 40
1.0
100
AcDbArc
 50
270.0
 51
0.0
  0
LINE
  5
4EE
330
1E
100
AcDbEntity
  8
1
  6
Continuous
 62
     7
100
AcDbLine
 10
165.073661
 20
97.88108199999999
 30
0.0
 11
229.6410379999999
 21
97.88108199999999
 31
0.0
  0
LINE
  5
4EF
330
1E
100
AcDbEntity
  8
1
  6
Continuous
 62
     7
100
AcDbLine
 10
184.7425889999999
 20
97.88108199999999
 30
0.0
 11
184.9703909999999
 21
98.108883
 31
0.0
  0
LINE
  5
4F0
330
1E
100
AcDbEntity
  8
1
  6
Continuous
 62
     7
100
AcDbLine
 10
184.277996
 20
97.982174
 30
0.0
 11
184.9703909999999
 21
98.674569
 31
0.0
  0
LINE
  5
4F1
330
1E
100
AcDbEntity
  8
1
  6
Continuous
 62
     7
100
AcDbLine
 10
183.958517
 20
98.228381
 30
0.0
 11
184.9703909999999
 21
99.24025400000001
 31
0.0
  0
LINE
  5
4F2
330
1E
100
AcDbEntity
  8
1
  6
Continuous
 62
     7
100
AcDbLine
 10
183.7582779999999
 20
98.59382700000001
 30
0.0
 11
184.9703909999999
 21
99.805939
 31
0.0
  0
LINE
  5
4F3
330
1E
100
AcDbEntity
  8
1
  6
Continuous
 62
     7
100
AcDbLine
 10
183.7203909999999
 20
99.121625
 30
0.0
 11
184.9703909999999
 21
100.3716249999999
 31
0.0
  0
LINE
  5
4F4
330
1E
100
AcDbEntity
  8
1
  6
Continuous
 62
     7
100
AcDbLine
 10
183.7203909999999
 20
99.68731
 30
0.0
 11
184.9703909999999
 21
100.9373099999999
 31
0.0
  0
LINE
  5
4F5
330
1E
100
AcDbEntity
  8
1
  6
Continuous
 62
     7
100
AcDbLine
 10
183.7203909999999
 20
100.2529959999999
 30
0.0
 11
184.9053599999999
 21
101.4379649999999
 31
0.0
  0
LINE
  5
4F6
330
1E
100
AcDbEntity
  8
1
  6
Continuous
 62
     7
100
AcDbLine
 10
183.7203909999999
 20
100.818681
 30
0.0
 11
184.410628
 21
101.508918
 31
0.0
  0
LINE
  5
4F7
330
1E
100
AcDbEntity
  8
1
  6
Continuous
 62
     7
100
AcDbLine
 10
183.7203909999999
 20
101.3843669999999
 30
0.0
 11
183.915895
 21
101.5798709999999
 31
0.0
  0
LINE
  5
4F8
330
1E
100
AcDbEntity
  8
1
  6
Continuous
 62
     7
100
AcDbLine
 10
188.540178
 20
97.88108199999999
 30
0.0
 11
188.814297
 21
98.15519999999999
 31
0.0
  0
LINE
  5
4F9
330
1E
100
AcDbEntity
  8
1
  6
Continuous
 62
     7
100
AcDbLine
 10
187.974493
 20
97.88108199999999
 30
0.0
 11
188.7569739999999
 21
98.66356299999999
 31
0.0
  0
LINE
  5
4FA
330
1E
100
AcDbEntity
  8
1
  6
Continuous
 62
     7
100
AcDbLine
 10
187.4088069999999
 20
97.88108199999999
 30
0.0
 11
188.6996509999999
 21
99.17192599999999
 31
0.0
  0
LINE
  5
4FB
330
1E
100
AcDbEntity
  8
1
  6
Continuous
 62
     7
100
AcDbLine
 10
186.9703909999999
 20
98.00834999999999
 30
0.0
 11
188.642329
 21
99.680289
 31
0.0
  0
LINE
  5
4FC
330
1E
100
AcDbEntity
  8
1
  6
Continuous
 62
     7
100
AcDbLine
 10
186.9703909999999
 20
98.57403599999999
 30
0.0
 11
188.5850059999999
 21
100.188652
 31
0.0
  0
LINE
  5
4FD
330
1E
100
AcDbEntity
  8
1
  6
Continuous
 62
     7
100
AcDbLine
 10
186.9703909999999
 20
99.139721
 30
0.0
 11
188.527684
 21
100.6970139999999
 31
0.0
  0
LINE
  5
4FE
330
1E
100
AcDbEntity
  8
1
  6
Continuous
 62
     7
100
AcDbLine
 10
186.9703909999999
 20
99.705407
 30
0.0
 11
188.2266239999999
 21
100.96164
 31
0.0
  0
LINE
  5
4FF
330
1E
100
AcDbEntity
  8
1
  6
Continuous
 62
     7
100
AcDbLine
 10
186.9703909999999
 20
100.271092
 30
0.0
 11
187.731892
 21
101.032593
 31
0.0
  0
LINE
  5
500
330
1E
100
AcDbEntity
  8
1
  6
Continuous
 62
     7
100
AcDbLine
 10
186.9703909999999
 20
100.836778
 30
0.0
 11
187.237159
 21
101.1035459999999
 31
0.0
  0
LINE
  5
501
330
1E
100
AcDbEntity
  8
1
  6
Continuous
 62
     7
100
AcDbLine
 10
217.6959769999999
 20
97.88108199999999
 30
0.0
 11
217.970391
 21
98.155496
 31
0.0
  0
LINE
  5
502
330
1E
100
AcDbEntity
  8
1
  6
Continuous
 62
     7
100
AcDbLine
 10
217.130291
 20
97.88108199999999
 30
0.0
 11
217.970391
 21
98.72118100000001
 31
0.0
  0
LINE
  5
503
330
1E
100
AcDbEntity
  8
1
  6
Continuous
 62
     7
100
AcDbLine
 10
216.5646059999999
 20
97.88108199999999
 30
0.0
 11
217.970391
 21
99.286867
 31
0.0
  0
LINE
  5
504
330
1E
100
AcDbEntity
  8
1
  6
Continuous
 62
     7
100
AcDbLine
 10
216.1802059999999
 20
98.06236700000001
 30
0.0
 11
217.970391
 21
99.852552
 31
0.0
  0
LINE
  5
505
330
1E
100
AcDbEntity
  8
1
  6
Continuous
 62
     7
100
AcDbLine
 10
216.238874
 20
98.68672099999999
 30
0.0
 11
217.970391
 21
100.418238
 31
0.0
  0
LINE
  5
506
330
1E
100
AcDbEntity
  8
1
  6
Continuous
 62
     7
100
AcDbLine
 10
216.2975419999999
 20
99.31107400000001
 30
0.0
 11
217.970391
 21
100.983923
 31
0.0
  0
LINE
  5
507
330
1E
100
AcDbEntity
  8
1
  6
Continuous
 62
     7
100
AcDbLine
 10
216.35621
 20
99.935428
 30
0.0
 11
217.498898
 21
101.078116
 31
0.0
  0
LINE
  5
508
330
1E
100
AcDbEntity
  8
1
  6
Continuous
 62
     7
100
AcDbLine
 10
216.414878
 20
100.559781
 30
0.0
 11
216.83449
 21
100.979394
 31
0.0
  0
LINE
  5
509
330
1E
100
AcDbEntity
  8
1
  6
Continuous
 62
     7
100
AcDbLine
 10
220.4424029999999
 20
97.90603799999999
 30
0.0
 11
221.1954339999999
 21
98.65906899999998
 31
0.0
  0
LINE
  5
50A
330
1E
100
AcDbEntity
  8
1
  6
Continuous
 62
     7
100
AcDbLine
 10
219.970391
 20
97.999711
 30
0.0
 11
221.2203909999999
 21
99.249711
 31
0.0
  0
LINE
  5
50B
330
1E
100
AcDbEntity
  8
1
  6
Continuous
 62
     7
100
AcDbLine
 10
219.970391
 20
98.56539599999999
 30
0.0
 11
221.2203909999999
 21
99.81539599999999
 31
0.0
  0
LINE
  5
50C
330
1E
100
AcDbEntity
  8
1
  6
Continuous
 62
     7
100
AcDbLine
 10
219.970391
 20
99.13108199999999
 30
0.0
 11
221.2203909999999
 21
100.3810819999999
 31
0.0
  0
LINE
  5
50D
330
1E
100
AcDbEntity
  8
1
  6
Continuous
 62
     7
100
AcDbLine
 10
219.970391
 20
99.696767
 30
0.0
 11
221.2203909999999
 21
100.946767
 31
0.0
  0
LINE
  5
50E
330
1E
100
AcDbEntity
  8
1
  6
Continuous
 62
     7
100
AcDbLine
 10
219.970391
 20
100.262453
 30
0.0
 11
221.2203909999999
 21
101.512453
 31
0.0
  0
LINE
  5
50F
330
1E
100
AcDbEntity
  8
1
  6
Continuous
 62
     7
100
AcDbLine
 10
219.970391
 20
100.8281379999999
 30
0.0
 11
220.6953149999999
 21
101.553062
 31
0.0
  0
LINE
  5
510
330
1E
100
AcDbEntity
  8
1
  6
Continuous
 62
     7
100
AcDbLine
 10
219.970391
 20
101.3938229999999
 30
0.0
 11
220.0309069999999
 21
101.4543399999999
 31
0.0
  0
LINE
  5
511
330
1E
100
AcDbEntity
  8
1
  6
Continuous
 62
     7
100
AcDbLine
 10
112.314286
 20
97.88108199999999
 30
0.0
 11
112.314286
 21
111.938172
 31
0.0
  0
LINE
  5
512
330
1E
100
AcDbEntity
  8
1
  6
Continuous
 62
     7
100
AcDbLine
 10
110.314286
 20
97.88108199999999
 30
0.0
 11
182.7425889999999
 21
97.88108199999999
 31
0.0
  0
LINE
  5
513
330
1E
100
AcDbEntity
  8
1
  6
Continuous
 62
     7
100
AcDbLine
 10
110.314286
 20
111.938172
 30
0.0
 11
116.6004139999999
 21
111.938172
 31
0.0
  0
LINE
  5
514
330
1E
100
AcDbEntity
  8
1
  6
Continuous
 62
     7
100
AcDbLine
 10
112.314286
 20
97.88108199999999
 30
0.0
 11
111.5378289999999
 21
100.778859
 31
0.0
  0
LINE
  5
515
330
1E
100
AcDbEntity
  8
1
  6
Continuous
 62
     7
100
AcDbLine
 10
112.314286
 20
97.88108199999999
 30
0.0
 11
113.0907429999999
 21
100.778859
 31
0.0
  0
LINE
  5
516
330
1E
100
AcDbEntity
  8
1
  6
Continuous
 62
     7
100
AcDbLine
 10
112.314286
 20
111.938172
 30
0.0
 11
113.0907429999999
 21
109.040395
 31
0.0
  0
LINE
  5
517
330
1E
100
AcDbEntity
  8
1
  6
Continuous
 62
     7
100
AcDbLine
 10
112.314286
 20
111.938172
 30
0.0
 11
111.5378289999999
 21
109.040395
 31
0.0
  0
TEXT
  5
518
330
1E
100
AcDbEntity
  8
1
  6
Continuous
 62
     7
100
AcDbText
 10
112.314286
 20
102.771422
 30
0.0
 40
4.0
  1
28
 50
90.0
 41
0.5
  7
KANJI
100
AcDbText
  0
LINE
  5
519
330
1E
100
AcDbEntity
  8
1
  6
Continuous
 62
     7
100
AcDbLine
 10
247.858928
 20
116.9310819999999
 30
0.0
 11
247.858928
 21
126.431082
 31
0.0
  0
LINE
  5
51A
330
1E
100
AcDbEntity
  8
1
  6
Continuous
 62
     7
100
AcDbLine
 10
249.858928
 20
116.9310819999999
 30
0.0
 11
237.3203909999999
 21
116.9310819999999
 31
0.0
  0
LINE
  5
51B
330
1E
100
AcDbEntity
  8
1
  6
Continuous
 62
     7
100
AcDbLine
 10
249.858928
 20
126.431082
 30
0.0
 11
237.3203909999999
 21
126.431082
 31
0.0
  0
LINE
  5
51C
330
1E
100
AcDbEntity
  8
1
  6
Continuous
 62
     7
100
AcDbLine
 10
247.858928
 20
116.9310819999999
 30
0.0
 11
247.082471
 21
119.828859
 31
0.0
  0
LINE
  5
51D
330
1E
100
AcDbEntity
  8
1
  6
Continuous
 62
     7
100
AcDbLine
 10
247.858928
 20
116.9310819999999
 30
0.0
 11
248.6353849999999
 21
119.828859
 31
0.0
  0
LINE
  5
51E
330
1E
100
AcDbEntity
  8
1
  6
Continuous
 62
     7
100
AcDbLine
 10
247.858928
 20
126.431082
 30
0.0
 11
248.6353849999999
 21
123.5333039999999
 31
0.0
  0
LINE
  5
51F
330
1E
100
AcDbEntity
  8
1
  6
Continuous
 62
     7
100
AcDbLine
 10
247.858928
 20
126.431082
 30
0.0
 11
247.082471
 21
123.5333039999999
 31
0.0
  0
TEXT
  5
520
330
1E
100
AcDbEntity
  8
1
  6
Continuous
 62
     7
100
AcDbText
 10
247.858928
 20
117.351806
 30
0.0
 40
4.0
  1
φ19
 50
90.0
 41
0.625
  7
KANJI
100
AcDbText
  0
LINE
  5
521
330
1E
100
AcDbEntity
  8
1
  6
Continuous
 62
     7
100
AcDbLine
 10
224.270391
 20
141.2482669999999
 30
0.0
 11
235.3203909999999
 21
141.2482669999999
 31
0.0
  0
LINE
  5
522
330
1E
100
AcDbEntity
  8
1
  6
Continuous
 62
     7
100
AcDbLine
 10
224.270391
 20
143.2482669999999
 30
0.0
 11
224.270391
 21
128.4310819999999
 31
0.0
  0
LINE
  5
523
330
1E
100
AcDbEntity
  8
1
  6
Continuous
 62
     7
100
AcDbLine
 10
235.3203909999999
 20
143.2482669999999
 30
0.0
 11
235.3203909999999
 21
128.4310819999999
 31
0.0
  0
LINE
  5
524
330
1E
100
AcDbEntity
  8
1
  6
Continuous
 62
     7
100
AcDbLine
 10
224.270391
 20
141.2482669999999
 30
0.0
 11
227.1681679999999
 21
142.0247239999999
 31
0.0
  0
LINE
  5
525
330
1E
100
AcDbEntity
  8
1
  6
Continuous
 62
     7
100
AcDbLine
 10
224.270391
 20
141.2482669999999
 30
0.0
 11
227.1681679999999
 21
140.47181
 31
0.0
  0
LINE
  5
526
330
1E
100
AcDbEntity
  8
1
  6
Continuous
 62
     7
100
AcDbLine
 10
235.3203909999999
 20
141.2482669999999
 30
0.0
 11
232.422613
 21
140.47181
 31
0.0
  0
LINE
  5
527
330
1E
100
AcDbEntity
  8
1
  6
Continuous
 62
     7
100
AcDbLine
 10
235.3203909999999
 20
141.2482669999999
 30
0.0
 11
232.422613
 21
142.0247239999999
 31
0.0
  0
TEXT
  5
528
330
1E
100
AcDbEntity
  8
1
  6
Continuous
 62
     7
100
AcDbText
 10
227.758675
 20
141.2482669999999
 30
0.0
 40
4.0
  1
23
 41
0.5
  7
KANJI
100
AcDbText
  0
LINE
  5
529
330
1E
100
AcDbEntity
  8
1
  6
Continuous
 62
     7
100
AcDbLine
 10
118.6004139999999
 20
148.4331
 30
0.0
 11
235.470391
 21
148.4331
 31
0.0
  0
LINE
  5
52A
330
1E
100
AcDbEntity
  8
1
  6
Continuous
 62
     7
100
AcDbLine
 10
118.6004139999999
 20
150.4331
 30
0.0
 11
118.6004139999999
 21
119.408127
 31
0.0
  0
LINE
  5
52B
330
1E
100
AcDbEntity
  8
1
  6
Continuous
 62
     7
100
AcDbLine
 10
235.470391
 20
150.4331
 30
0.0
 11
235.470391
 21
128.2810819999999
 31
0.0
  0
LINE
  5
52C
330
1E
100
AcDbEntity
  8
1
  6
Continuous
 62
     7
100
AcDbLine
 10
118.6004139999999
 20
148.4331
 30
0.0
 11
121.4981919999999
 21
149.209557
 31
0.0
  0
LINE
  5
52D
330
1E
100
AcDbEntity
  8
1
  6
Continuous
 62
     7
100
AcDbLine
 10
118.6004139999999
 20
148.4331
 30
0.0
 11
121.4981919999999
 21
147.656643
 31
0.0
  0
LINE
  5
52E
330
1E
100
AcDbEntity
  8
1
  6
Continuous
 62
     7
100
AcDbLine
 10
235.470391
 20
148.4331
 30
0.0
 11
232.572613
 21
147.656643
 31
0.0
  0
LINE
  5
52F
330
1E
100
AcDbEntity
  8
1
  6
Continuous
 62
     7
100
AcDbLine
 10
235.470391
 20
148.4331
 30
0.0
 11
232.572613
 21
149.209557
 31
0.0
  0
TEXT
  5
530
330
1E
100
AcDbEntity
  8
1
  6
Continuous
 62
     7
100
AcDbText
 10
175.2213139999999
 20
148.4331
 30
0.0
 40
4.0
  1
234
 41
0.5
  7
KANJI
100
AcDbText
  0
LINE
  5
531
330
1E
100
AcDbEntity
  8
1
  6
Continuous
 62
     7
100
AcDbLine
 10
210.9703909999999
 20
92.25229099999999
 30
0.0
 11
230.151434
 21
92.25229099999999
 31
0.0
  0
LINE
  5
532
330
1E
100
AcDbEntity
  8
1
  6
Continuous
 62
     7
100
AcDbLine
 10
218.9703909999999
 20
90.252291
 30
0.0
 11
218.9703909999999
 21
95.88108199999998
 31
0.0
  0
LINE
  5
533
330
1E
100
AcDbEntity
  8
1
  6
Continuous
 62
     7
100
AcDbLine
 10
221.1954339999999
 20
90.252291
 30
0.0
 11
221.1954339999999
 21
96.65906899999999
 31
0.0
  0
LINE
  5
534
330
1E
100
AcDbEntity
  8
1
  6
Continuous
 62
     7
100
AcDbLine
 10
218.9703909999999
 20
92.25229099999999
 30
0.0
 11
216.072613
 21
91.475834
 31
0.0
  0
LINE
  5
535
330
1E
100
AcDbEntity
  8
1
  6
Continuous
 62
     7
100
AcDbLine
 10
218.9703909999999
 20
92.25229099999999
 30
0.0
 11
216.072613
 21
93.02874799999999
 31
0.0
  0
LINE
  5
536
330
1E
100
AcDbEntity
  8
1
  6
Continuous
 62
     7
100
AcDbLine
 10
221.1954339999999
 20
92.25229099999999
 30
0.0
 11
224.093212
 21
93.02874799999999
 31
0.0
  0
LINE
  5
537
330
1E
100
AcDbEntity
  8
1
  6
Continuous
 62
     7
100
AcDbLine
 10
221.1954339999999
 20
92.25229099999999
 30
0.0
 11
224.093212
 21
91.475834
 31
0.0
  0
TEXT
  5
538
330
1E
100
AcDbEntity
  8
1
  6
Continuous
 62
     7
100
AcDbText
 10
224.901164
 20
92.25229099999999
 30
0.0
 40
4.0
  1
4.5
 41
0.576923
  7
KANJI
100
AcDbText
  0
LINE
  5
539
330
1E
100
AcDbEntity
  8
1
  6
Continuous
 62
     7
100
AcDbLine
 10
185.9703909999999
 20
92.254105
 30
0.0
 11
218.9703909999999
 21
92.254105
 31
0.0
  0
LINE
  5
53A
330
1E
100
AcDbEntity
  8
1
  6
Continuous
 62
     7
100
AcDbLine
 10
185.9703909999999
 20
90.25410500000001
 30
0.0
 11
185.9703909999999
 21
95.88108199999998
 31
0.0
  0
LINE
  5
53B
330
1E
100
AcDbEntity
  8
1
  6
Continuous
 62
     7
100
AcDbLine
 10
218.9703909999999
 20
90.25410500000001
 30
0.0
 11
218.9703909999999
 21
95.88108199999998
 31
0.0
  0
LINE
  5
53C
330
1E
100
AcDbEntity
  8
1
  6
Continuous
 62
     7
100
AcDbLine
 10
185.9703909999999
 20
92.254105
 30
0.0
 11
188.8681679999999
 21
93.03056299999999
 31
0.0
  0
LINE
  5
53D
330
1E
100
AcDbEntity
  8
1
  6
Continuous
 62
     7
100
AcDbLine
 10
185.9703909999999
 20
92.254105
 30
0.0
 11
188.8681679999999
 21
91.477648
 31
0.0
  0
LINE
  5
53E
330
1E
100
AcDbEntity
  8
1
  6
Continuous
 62
     7
100
AcDbLine
 10
218.9703909999999
 20
92.254105
 30
0.0
 11
216.072613
 21
91.477648
 31
0.0
  0
LINE
  5
53F
330
1E
100
AcDbEntity
  8
1
  6
Continuous
 62
     7
100
AcDbLine
 10
218.9703909999999
 20
92.254105
 30
0.0
 11
216.072613
 21
93.03056299999999
 31
0.0
  0
TEXT
  5
540
330
1E
100
AcDbEntity
  8
1
  6
Continuous
 62
     7
100
AcDbText
 10
199.427128
 20
92.11728
 30
0.0
 40
4.0
  1
66
 41
0.5
  7
KANJI
100
AcDbText
  0
LINE
  5
541
330
1E
100
AcDbEntity
  8
1
  6
Continuous
 62
     7
100
AcDbLine
 10
118.6004139999999
 20
92.321281
 30
0.0
 11
178.570391
 21
92.321281
 31
0.0
  0
LINE
  5
542
330
1E
100
AcDbEntity
  8
1
  6
Continuous
 62
     7
100
AcDbLine
 10
118.6004139999999
 20
90.32128099999999
 30
0.0
 11
118.6004139999999
 21
104.354037
 31
0.0
  0
LINE
  5
543
330
1E
100
AcDbEntity
  8
1
  6
Continuous
 62
     7
100
AcDbLine
 10
178.570391
 20
90.32128099999999
 30
0.0
 11
178.570391
 21
97.38108199999999
 31
0.0
  0
LINE
  5
544
330
1E
100
AcDbEntity
  8
1
  6
Continuous
 62
     7
100
AcDbLine
 10
118.6004139999999
 20
92.321281
 30
0.0
 11
121.4981919999999
 21
93.097738
 31
0.0
  0
LINE
  5
545
330
1E
100
AcDbEntity
  8
1
  6
Continuous
 62
     7
100
AcDbLine
 10
118.6004139999999
 20
92.321281
 30
0.0
 11
121.4981919999999
 21
91.544824
 31
0.0
  0
LINE
  5
546
330
1E
100
AcDbEntity
  8
1
  6
Continuous
 62
     7
100
AcDbLine
 10
178.570391
 20
92.321281
 30
0.0
 11
175.6726129999999
 21
91.544824
 31
0.0
  0
LINE
  5
547
330
1E
100
AcDbEntity
  8
1
  6
Continuous
 62
     7
100
AcDbLine
 10
178.570391
 20
92.321281
 30
0.0
 11
175.6726129999999
 21
93.097738
 31
0.0
  0
TEXT
  5
548
330
1E
100
AcDbEntity
  8
1
  6
Continuous
 62
     7
100
AcDbText
 10
147.7926859999999
 20
92.321281
 30
0.0
 40
4.0
  1
120
 41
0.5
  7
KANJI
100
AcDbText
  0
LINE
  5
549
330
1E
100
AcDbEntity
  8
1
  6
Continuous
 62
     7
100
AcDbLine
 10
130.4171689999999
 20
122.631082
 30
0.0
 11
130.4171689999999
 21
101.1310819999999
 31
0.0
  0
LINE
  5
54A
330
1E
100
AcDbEntity
  8
1
  6
Continuous
 62
     7
100
AcDbLine
 10
132.417169
 20
122.631082
 30
0.0
 11
125.8466129999999
 21
122.631082
 31
0.0
  0
LINE
  5
54B
330
1E
100
AcDbEntity
  8
1
  6
Continuous
 62
     7
100
AcDbLine
 10
132.417169
 20
101.1310819999999
 30
0.0
 11
125.8466129999999
 21
101.1310819999999
 31
0.0
  0
LINE
  5
54C
330
1E
100
AcDbEntity
  8
1
  6
Continuous
 62
     7
100
AcDbLine
 10
130.4171689999999
 20
122.631082
 30
0.0
 11
131.1936259999999
 21
119.7333039999999
 31
0.0
  0
LINE
  5
54D
330
1E
100
AcDbEntity
  8
1
  6
Continuous
 62
     7
100
AcDbLine
 10
130.4171689999999
 20
122.631082
 30
0.0
 11
129.640712
 21
119.7333039999999
 31
0.0
  0
LINE
  5
54E
330
1E
100
AcDbEntity
  8
1
  6
Continuous
 62
     7
100
AcDbLine
 10
130.4171689999999
 20
101.1310819999999
 30
0.0
 11
129.640712
 21
104.028859
 31
0.0
  0
LINE
  5
54F
330
1E
100
AcDbEntity
  8
1
  6
Continuous
 62
     7
100
AcDbLine
 10
130.4171689999999
 20
101.1310819999999
 30
0.0
 11
131.1936259999999
 21
104.028859
 31
0.0
  0
TEXT
  5
550
330
1E
100
AcDbEntity
  8
1
  6
Continuous
 62
     7
100
AcDbText
 10
130.0356049999999
 20
107.9381719999999
 30
0.0
 40
4.0
  1
φ43
 50
90.0
 41
0.625
  7
KANJI
100
AcDbText
  0
LINE
  5
551
330
1E
100
AcDbEntity
  8
1
  6
Continuous
 62
     7
100
AcDbLine
 10
29.050946
 20
97.89990300000001
 30
0.0
 11
29.050946
 21
137.131082
 31
0.0
  0
LINE
  5
552
330
1E
100
AcDbEntity
  8
1
  6
Continuous
 62
     7
100
AcDbLine
 10
27.050946
 20
97.89990300000001
 30
0.0
 11
39.014487
 21
97.89990300000001
 31
0.0
  0
LINE
  5
553
330
1E
100
AcDbEntity
  8
1
  6
Continuous
 62
     7
100
AcDbLine
 10
27.050946
 20
137.131082
 30
0.0
 11
55.75972700000001
 21
137.131082
 31
0.0
  0
LINE
  5
554
330
1E
100
AcDbEntity
  8
1
  6
Continuous
 62
     7
100
AcDbLine
 10
29.050946
 20
97.89990300000001
 30
0.0
 11
28.274488
 21
100.797681
 31
0.0
  0
LINE
  5
555
330
1E
100
AcDbEntity
  8
1
  6
Continuous
 62
     7
100
AcDbLine
 10
29.050946
 20
97.89990300000001
 30
0.0
 11
29.827403
 21
100.797681
 31
0.0
  0
LINE
  5
556
330
1E
100
AcDbEntity
  8
1
  6
Continuous
 62
     7
100
AcDbLine
 10
29.050946
 20
137.131082
 30
0.0
 11
29.827403
 21
134.2333039999999
 31
0.0
  0
LINE
  5
557
330
1E
100
AcDbEntity
  8
1
  6
Continuous
 62
     7
100
AcDbLine
 10
29.050946
 20
137.131082
 30
0.0
 11
28.274488
 21
134.2333039999999
 31
0.0
  0
TEXT
  5
558
330
1E
100
AcDbEntity
  8
1
  6
Continuous
 62
     7
100
AcDbText
 10
29.050946
 20
113.803998
 30
0.0
 40
4.0
  1
78.5
 50
90.0
 41
0.5555560000000001
  7
KANJI
100
AcDbText
  0
LINE
  5
559
330
1E
100
AcDbEntity
  8
1
  6
Continuous
 62
     7
100
AcDbLine
 10
34.537399
 20
97.89990300000001
 30
0.0
 11
34.537399
 21
121.681082
 31
0.0
  0
LINE
  5
55A
330
1E
100
AcDbEntity
  8
1
  6
Continuous
 62
     7
100
AcDbLine
 10
32.537399
 20
97.89990300000001
 30
0.0
 11
39.014487
 21
97.89990300000001
 31
0.0
  0
LINE
  5
55B
330
1E
100
AcDbEntity
  8
1
  6
Continuous
 62
     7
100
AcDbLine
 10
32.537399
 20
121.681082
 30
0.0
 11
40.759727
 21
121.681082
 31
0.0
  0
LINE
  5
55C
330
1E
100
AcDbEntity
  8
1
  6
Continuous
 62
     7
100
AcDbLine
 10
34.537399
 20
97.89990300000001
 30
0.0
 11
33.760942
 21
100.797681
 31
0.0
  0
LINE
  5
55D
330
1E
100
AcDbEntity
  8
1
  6
Continuous
 62
     7
100
AcDbLine
 10
34.537399
 20
97.89990300000001
 30
0.0
 11
35.313856
 21
100.797681
 31
0.0
  0
LINE
  5
55E
330
1E
100
AcDbEntity
  8
1
  6
Continuous
 62
     7
100
AcDbLine
 10
34.537399
 20
121.681082
 30
0.0
 11
35.313856
 21
118.783304
 31
0.0
  0
LINE
  5
55F
330
1E
100
AcDbEntity
  8
1
  6
Continuous
 62
     7
100
AcDbLine
 10
34.537399
 20
121.681082
 30
0.0
 11
33.760942
 21
118.783304
 31
0.0
  0
TEXT
  5
560
330
1E
100
AcDbEntity
  8
1
  6
Continuous
 62
     7
100
AcDbText
 10
34.537399
 20
105.5039789999999
 30
0.0
 40
4.0
  1
47.5
 50
90.0
 41
0.5555560000000001
  7
KANJI
100
AcDbText
  0
LINE
  5
561
330
1E
100
AcDbEntity
  8
1
  6
Continuous
 62
     7
100
AcDbLine
 10
42.759727
 20
90.32645100000001
 30
0.0
 11
72.759727
 21
90.32645100000001
 31
0.0
  0
LINE
  5
562
330
1E
100
AcDbEntity
  8
1
  6
Continuous
 62
     7
100
AcDbLine
 10
42.759727
 20
88.326451
 30
0.0
 11
42.759727
 21
95.88108199999998
 31
0.0
  0
LINE
  5
563
330
1E
100
AcDbEntity
  8
1
  6
Continuous
 62
     7
100
AcDbLine
 10
72.759727
 20
88.326451
 30
0.0
 11
72.759727
 21
95.88108199999998
 31
0.0
  0
LINE
  5
564
330
1E
100
AcDbEntity
  8
1
  6
Continuous
 62
     7
100
AcDbLine
 10
42.759727
 20
90.32645100000001
 30
0.0
 11
45.65750399999999
 21
91.10290799999999
 31
0.0
  0
LINE
  5
565
330
1E
100
AcDbEntity
  8
1
  6
Continuous
 62
     7
100
AcDbLine
 10
42.759727
 20
90.32645100000001
 30
0.0
 11
45.65750399999999
 21
89.549994
 31
0.0
  0
LINE
  5
566
330
1E
100
AcDbEntity
  8
1
  6
Continuous
 62
     7
100
AcDbLine
 10
72.759727
 20
90.32645100000001
 30
0.0
 11
69.861949
 21
89.549994
 31
0.0
  0
LINE
  5
567
330
1E
100
AcDbEntity
  8
1
  6
Continuous
 62
     7
100
AcDbLine
 10
72.759727
 20
90.32645100000001
 30
0.0
 11
69.861949
 21
91.10290799999999
 31
0.0
  0
TEXT
  5
568
330
1E
100
AcDbEntity
  8
1
  6
Continuous
 62
     7
100
AcDbText
 10
55.734835
 20
90.26795600000001
 30
0.0
 40
4.0
  1
60
 41
0.5
  7
KANJI
100
AcDbText
  0
LINE
  5
569
330
1E
100
AcDbEntity
  8
1
  6
Continuous
 62
     7
100
AcDbLine
 10
40.22169799999999
 20
84.42145399999999
 30
0.0
 11
75.297756
 21
84.42145399999999
 31
0.0
  0
LINE
  5
56A
330
1E
100
AcDbEntity
  8
1
  6
Continuous
 62
     7
100
AcDbLine
 10
40.22169799999999
 20
82.421454
 30
0.0
 11
40.22169799999999
 21
96.59096099999999
 31
0.0
  0
LINE
  5
56B
330
1E
100
AcDbEntity
  8
1
  6
Continuous
 62
     7
100
AcDbLine
 10
75.297756
 20
82.421454
 30
0.0
 11
75.297756
 21
96.59096099999999
 31
0.0
  0
LINE
  5
56C
330
1E
100
AcDbEntity
  8
1
  6
Continuous
 62
     7
100
AcDbLine
 10
40.22169799999999
 20
84.42145399999999
 30
0.0
 11
43.119475
 21
85.197911
 31
0.0
  0
LINE
  5
56D
330
1E
100
AcDbEntity
  8
1
  6
Continuous
 62
     7
100
AcDbLine
 10
40.22169799999999
 20
84.42145399999999
 30
0.0
 11
43.119475
 21
83.64499700000001
 31
0.0
  0
LINE
  5
56E
330
1E
100
AcDbEntity
  8
1
  6
Continuous
 62
     7
100
AcDbLine
 10
75.297756
 20
84.42145399999999
 30
0.0
 11
72.399979
 21
83.64499700000001
 31
0.0
  0
LINE
  5
56F
330
1E
100
AcDbEntity
  8
1
  6
Continuous
 62
     7
100
AcDbLine
 10
75.297756
 20
84.42145399999999
 30
0.0
 11
72.399979
 21
85.197911
 31
0.0
  0
TEXT
  5
570
330
1E
100
AcDbEntity
  8
1
  6
Continuous
 62
     7
100
AcDbText
 10
55.69281199999999
 20
84.42145399999999
 30
0.0
 40
4.0
  1
70
 41
0.5
  7
KANJI
100
AcDbText
  0
LINE
  5
571
330
1E
100
AcDbEntity
  8
1
  6
Continuous
 62
     7
100
AcDbLine
 10
72.759727
 20
97.88108199999999
 30
0.0
 11
78.393415
 21
86.00654099999999
 31
0.0
  0
LINE
  5
572
330
1E
100
AcDbEntity
  8
1
  6
Continuous
 62
     7
100
AcDbLine
 10
78.393415
 20
86.00654099999999
 30
0.0
 11
87.65899799999999
 21
86.00654099999999
 31
0.0
  0
TEXT
  5
573
330
1E
100
AcDbEntity
  8
1
  6
Continuous
 62
     7
100
AcDbText
 10
79.65899799999999
 20
86.08285399999999
 30
0.0
 40
4.0
  1
4-M4
 41
0.5
  7
KANJI
100
AcDbText
  0
LINE
  5
574
330
1E
100
AcDbEntity
  8
1
  6
Continuous
 62
     7
100
AcDbLine
 10
72.759727
 20
97.88108199999999
 30
0.0
 11
75.35121
 21
94.83408100000001
 31
0.0
  0
LINE
  5
575
330
1E
100
AcDbEntity
  8
1
  6
Continuous
 62
     7
100
AcDbLine
 10
72.759727
 20
97.88108199999999
 30
0.0
 11
73.480517
 21
93.94655999999999
 31
0.0
  0
TEXT
  5
576
330
1E
100
AcDbEntity
  8
1
  6
Continuous
 62
     7
100
AcDbText
 10
125.310414
 20
37.75321599999999
 30
0.0
 40
5.0
  1
1/2
 41
0.5
  7
KANJI
100
AcDbText
  0
TEXT
  5
577
330
1E
100
AcDbEntity
  8
1
  6
Continuous
 62
     7
100
AcDbText
 10
120.17756
 20
28.059603
 30
0.0
 40
5.0
  1
2007.4.9
 41
0.5555560000000001
  7
KANJI
100
AcDbText
  0
TEXT
  5
578
330
1E
100
AcDbEntity
  8
1
  6
Continuous
 62
     7
100
AcDbText
 10
220.1270799999999
 20
27.99497899999999
 30
0.0
 40
5.0
  1
ＰＨＳ２５
 41
0.833333
  7
KANJI
100
AcDbText
  0
TEXT
  5
579
330
1E
100
AcDbEntity
  8
1
  6
Continuous
 62
     7
100
AcDbText
 10
221.0318169999999
 20
17.590501
 30
0.0
 40
5.0
  1
外観仕様図
 41
0.833333
  7
KANJI
100
AcDbText
  0
ENDSEC
  0
SECTION
  2
OBJECTS
  0
DICTIONARY
  5
C
330
0
100
AcDbDictionary
281
     1
  3
ACAD_GROUP
350
D
  3
ACAD_PLOTSTYLENAME
350
E
  3
ACAD_MLINESTYLE
350
16
  3
ACAD_PLOTSETTINGS
350
18
  3
ACAD_LAYOUT
350
19
  0
DICTIONARY
  5
D
102
{ACAD_REACTORS
330
C
102
}
330
C
100
AcDbDictionary
281
     1
  0
ACDBDICTIONARYWDFLT
  5
E
102
{ACAD_REACTORS
330
C
102
}
330
C
100
AcDbDictionary
281
     1
  3
Normal
350
F
100
AcDbDictionaryWithDefault
340
F
  0
DICTIONARY
  5
16
102
{ACAD_REACTORS
330
C
102
}
330
C
100
AcDbDictionary
281
     1
  3
Standard
350
17
  0
DICTIONARY
  5
18
102
{ACAD_REACTORS
330
C
102
}
330
C
100
AcDbDictionary
281
     1
  0
DICTIONARY
  5
19
102
{ACAD_REACTORS
330
C
102
}
330
C
100
AcDbDictionary
281
     1
  3
ﾚｲｱｳﾄ1
350
1D
  3
Model
350
21
  0
ACDBPLACEHOLDER
  5
F
102
{ACAD_REACTORS
330
E
102
}
330
E
  0
MLINESTYLE
  5
17
102
{ACAD_REACTORS
330
16
102
}
330
16
100
AcDbMlineStyle
  2
STANDARD
 70
     0
  3

 62
   256
 51
90.0
 52
90.0
 71
     2
 49
0.5
 62
   256
  6
BYLAYER
 49
-0.5
 62
   256
  6
BYLAYER
  0
LAYOUT
  5
1D
102
{ACAD_REACTORS
330
19
102
}
330
19
100
AcDbPlotSettings
  1

  2
なし
  4

  6

 40
0.0
 41
0.0
 42
0.0
 43
0.0
 44
0.0
 45
0.0
 46
0.0
 47
0.0
 48
0.0
 49
0.0
140
0.0
141
0.0
142
1.0
143
1.0
 70
   688
 72
     0
 73
     0
 74
     5
  7

 75
    16
147
1.0
148
0.0
149
0.0
100
AcDbLayout
  1
ﾚｲｱｳﾄ1
 70
     1
 71
     1
 10
0.0
 20
0.0
 11
12.0
 21
9.0
 12
0.0
 22
0.0
 32
0.0
 14
0.0
 24
0.0
 34
0.0
 15
297.0
 25
210.0
 35
0.0
146
0.0
 13
0.0
 23
0.0
 33
0.0
 16
1.0
 26
0.0
 36
0.0
 17
0.0
 27
1.0
 37
0.0
 76
     0
330
1A
  0
LAYOUT
  5
21
102
{ACAD_REACTORS
330
19
102
}
330
19
100
AcDbPlotSettings
  1

  2
なし
  4

  6

 40
0.0
 41
0.0
 42
0.0
 43
0.0
 44
0.0
 45
0.0
 46
0.0
 47
0.0
 48
0.0
 49
0.0
140
0.0
141
0.0
142
1.0
143
1.0
 70
  1712
 72
     0
 73
     0
 74
     0
  7

 75
     0
147
1.0
148
0.0
149
0.0
100
AcDbLayout
  1
Model
 70
     1
 71
     0
 10
0.0
 20
0.0
 11
12.0
 21
9.0
 12
0.0
 22
0.0
 32
0.0
 14
0.0
 24
0.0
 34
0.0
 15
0.0
 25
0.0
 35
0.0
146
0.0
 13
0.0
 23
0.0
 33
0.0
 16
1.0
 26
0.0
 36
0.0
 17
0.0
 27
1.0
 37
0.0
 76
     0
330
1E
  0
ENDSEC
  0
EOF
