  0
SECTION
  2
HEADER
  9
$ACADVER
  1
AC1009
  9
$INSBASE
 10
0.0
 20
0.0
 30
0.0
  9
$EXTMIN
 10
6.040970547172491
 20
5.2807622138419674
 30
-0.0015258207003583
  9
$EXTMAX
 10
406.06828389953381
 20
300.03250181445912
 30
0.0000000349246037
  9
$LIMMIN
 10
0.0
 20
0.0
  9
$LIMMAX
 10
297.0
 20
210.0
  9
$ORTHOMODE
 70
     0
  9
$REGENMODE
 70
     1
  9
$FILLMODE
 70
     1
  9
$QTEXTMODE
 70
     0
  9
$MIRRTEXT
 70
     1
  9
$DRAGMODE
 70
     2
  9
$LTSCALE
 40
0.25
  9
$OSMODE
 70
    37
  9
$ATTMODE
 70
     1
  9
$TEXTSIZE
 40
0.2
  9
$TRACEWID
 40
0.05
  9
$TEXTSTYLE
  7
STANDARD
  9
$CLAYER
  8
0
  9
$CELTYPE
  6
BYLAYER
  9
$CECOLOR
 62
   256
  9
$DIMSCALE
 40
1.0
  9
$DIMASZ
 40
1.0
  9
$DIMEXO
 40
0.0
  9
$DIMDLI
 40
0.5
  9
$DIMRND
 40
0.0
  9
$DIMDLE
 40
0.0
  9
$DIMEXE
 40
0.0
  9
$DIMTP
 40
0.0
  9
$DIMTM
 40
0.0
  9
$DIMTXT
 40
0.18
  9
$DIMCEN
 40
0.0
  9
$DIMTSZ
 40
0.0
  9
$DIMTOL
 70
     0
  9
$DIMLIM
 70
     0
  9
$DIMTIH
 70
     1
  9
$DIMTOH
 70
     1
  9
$DIMSE1
 70
     0
  9
$DIMSE2
 70
     0
  9
$DIMTAD
 70
     0
  9
$DIMZIN
 70
     0
  9
$DIMBLK
  1

  9
$DIMASO
 70
     0
  9
$DIMSHO
 70
     0
  9
$DIMPOST
  1

  9
$DIMAPOST
  1

  9
$DIMALT
 70
     0
  9
$DIMALTD
 70
     0
  9
$DIMALTF
 40
25.399999999999999
  9
$DIMLFAC
 40
1.0
  9
$DIMTOFL
 70
     0
  9
$DIMTVP
 40
0.0
  9
$DIMTIX
 70
     0
  9
$DIMSOXD
 70
     0
  9
$DIMSAH
 70
     0
  9
$DIMBLK1
  1

  9
$DIMBLK2
  1

  9
$DIMSTYLE
  2
STANDARD
  9
$DIMCLRD
 70
     0
  9
$DIMCLRE
 70
     0
  9
$DIMCLRT
 70
     0
  9
$DIMTFAC
 40
1.0
  9
$DIMGAP
 40
0.09
  9
$LUNITS
 70
     2
  9
$LUPREC
 70
     2
  9
$SKETCHINC
 40
0.0
  9
$FILLETRAD
 40
0.0
  9
$AUNITS
 70
     1
  9
$AUPREC
 70
     2
  9
$MENU
  1
ACAD
  9
$ELEVATION
 40
0.0
  9
$PELEVATION
 40
0.0
  9
$THICKNESS
 40
0.0
  9
$LIMCHECK
 70
     1
  9
$BLIPMODE
 70
     0
  9
$CHAMFERA
 40
0.0
  9
$CHAMFERB
 40
0.0
  9
$SKPOLY
 70
     0
  9
$TDCREATE
 40
2311945.483414676
  9
$TDUPDATE
 40
2454242.540214479
  9
$TDINDWG
 40
0.0016869213
  9
$TDUSRTIMER
 40
0.0016865625
  9
$USRTIMER
 70
     1
  9
$ANGBASE
 50
0.0
  9
$ANGDIR
 70
     0
  9
$PDMODE
 70
     0
  9
$PDSIZE
 40
0.0
  9
$PLINEWID
 40
0.0
  9
$COORDS
 70
     1
  9
$SPLFRAME
 70
     0
  9
$SPLINETYPE
 70
     6
  9
$SPLINESEGS
 70
     8
  9
$ATTDIA
 70
     0
  9
$ATTREQ
 70
     1
  9
$HANDLING
 70
 10241
  9
$HANDSEED
  5
55B
  9
$SURFTAB1
 70
     6
  9
$SURFTAB2
 70
     6
  9
$SURFTYPE
 70
     6
  9
$SURFU
 70
     6
  9
$SURFV
 70
     6
  9
$UCSNAME
  2

  9
$UCSORG
 10
0.0
 20
0.0
 30
0.0
  9
$UCSXDIR
 10
1.0
 20
0.0
 30
0.0
  9
$UCSYDIR
 10
0.0
 20
1.0
 30
0.0
  9
$PUCSNAME
  2

  9
$PUCSORG
 10
0.0
 20
0.0
 30
0.0
  9
$PUCSXDIR
 10
1.0
 20
0.0
 30
0.0
  9
$PUCSYDIR
 10
0.0
 20
1.0
 30
0.0
  9
$USERI1
 70
     0
  9
$USERI2
 70
     0
  9
$USERI3
 70
     0
  9
$USERI4
 70
     0
  9
$USERI5
 70
     0
  9
$USERR1
 40
0.0
  9
$USERR2
 40
0.0
  9
$USERR3
 40
0.0
  9
$USERR4
 40
0.0
  9
$USERR5
 40
0.0
  9
$WORLDVIEW
 70
     1
  9
$SHADEDGE
 70
     3
  9
$SHADEDIF
 70
    70
  9
$TILEMODE
 70
     1
  9
$MAXACTVP
 70
    64
  9
$PLIMCHECK
 70
     0
  9
$PEXTMIN
 10
0.0
 20
0.0
 30
0.0
  9
$PEXTMAX
 10
297.0
 20
210.0
 30
0.0
  9
$PLIMMIN
 10
0.0
 20
0.0
  9
$PLIMMAX
 10
12.0
 20
9.0
  9
$UNITMODE
 70
     0
  9
$VISRETAIN
 70
     1
  9
$PLINEGEN
 70
     0
  9
$PSLTSCALE
 70
     1
  0
ENDSEC
  0
SECTION
  2
TABLES
  0
TABLE
  2
VPORT
 70
     2
  0
VPORT
  2
*ACTIVE
 70
     0
 10
0.0
 20
0.0
 11
1.0
 21
1.0
 12
203.03414194976679
 22
150.01625090722951
 13
0.0
 23
0.0
 14
1.0
 24
1.0
 15
0.0
 25
0.0
 16
0.0
 26
0.0
 36
1.0
 17
0.0
 27
0.0
 37
0.0
 40
302.314117797839
 41
1.5279187817258879
 42
50.0
 43
0.0
 44
0.0
 50
0.0
 51
0.0
 71
     0
 72
   100
 73
     1
 74
     1
 75
     0
 76
     0
 77
     0
 78
     0
  0
ENDTAB
  0
TABLE
  2
LTYPE
 70
     7
  0
LTYPE
  2
CONTINUOUS
 70
     0
  3
Solid line
 72
    65
 73
     0
 40
0.0
  0
LTYPE
  2
HIDDEN
 70
     0
  3
------------------------
 72
    65
 73
     2
 40
12.6
 49
8.4000000000000004
 49
-4.2000000000000002
  0
LTYPE
  2
DOT
 70
     0
  3
････････････････････････
 72
    65
 73
     2
 40
8.0
 49
6.0
 49
-2.0
  0
LTYPE
  2
DASHDOT
 70
     0
  3
--･--･--･--･--･--･--･--
 72
    65
 73
     4
 40
50.5
 49
30.0
 49
-9.0
 49
2.5
 49
-9.0
  0
LTYPE
  2
DIVIDE
 70
     0
  3
--･･--･･--･･--･･--･･--
 72
    65
 73
     6
 40
58.0
 49
30.0
 49
-9.0
 49
2.5
 49
-5.0
 49
2.5
 49
-9.0
  0
LTYPE
  2
ACAD_ISO06W100
 70
     0
  3
____ ... ____ ... ____
 72
    65
 73
     8
 40
37.5
 49
24.0
 49
-3.0
 49
0.5
 49
-3.0
 49
0.5
 49
-3.0
 49
0.5
 49
-3.0
  0
LTYPE
  2
ACAD_ISO14W100
 70
     0
  3
__ . . . __ . . . __ . . . 
 72
    65
 73
     8
 40
25.5
 49
12.0
 49
-3.0
 49
0.5
 49
-3.0
 49
0.5
 49
-3.0
 49
0.5
 49
-3.0
  0
ENDTAB
  0
TABLE
  2
LAYER
 70
     3
  0
LAYER
  2
0
 70
     0
 62
     7
  6
CONTINUOUS
  0
LAYER
  2
1
 70
     0
 62
     7
  6
CONTINUOUS
  0
LAYER
  2
5
 70
     0
 62
     7
  6
CONTINUOUS
  0
ENDTAB
  0
TABLE
  2
STYLE
 70
     2
  0
STYLE
  2
STANDARD
 70
     0
 40
0.0
 41
1.0
 50
0.0
 71
     0
 42
0.2
  3
TXT
  4

  0
STYLE
  2
KANJI
 70
     0
 40
0.0
 41
1.0
 50
0.0
 71
     0
 42
0.2
  3
TXT
  4
BIGFONT
  0
ENDTAB
  0
TABLE
  2
VIEW
 70
     0
  0
ENDTAB
  0
TABLE
  2
UCS
 70
     0
  0
ENDTAB
  0
TABLE
  2
APPID
 70
     1
  0
APPID
  2
ACAD
 70
     0
  0
ENDTAB
  0
TABLE
  2
DIMSTYLE
 70
     1
  0
DIMSTYLE
  2
STANDARD
 70
     0
  3

  4

  5

  6

  7

 40
1.0
 41
0.18
 42
0.0625
 43
0.38
 44
0.18
 45
0.0
 46
0.0
 47
0.0
 48
0.0
140
0.18
141
0.09
142
0.0
143
25.399999999999999
144
1.0
145
0.0
146
1.0
147
0.09
 71
     0
 72
     0
 73
     1
 74
     1
 75
     0
 76
     0
 77
     0
 78
     0
170
     0
171
     2
172
     0
173
     0
174
     0
175
     0
176
     0
177
     0
178
     0
  0
ENDTAB
  0
ENDSEC
  0
SECTION
  2
BLOCKS
  0
BLOCK
  8
0
  2
$MODEL_SPACE
 70
     0
 10
0.0
 20
0.0
 30
0.0
  3
$MODEL_SPACE
  1

  0
ENDBLK
  5
20
  8
0
  0
BLOCK
 67
     1
  8
0
  2
$PAPER_SPACE
 70
     0
 10
0.0
 20
0.0
 30
0.0
  3
$PAPER_SPACE
  1

  0
ENDBLK
  5
1C
 67
     1
  8
0
  0
ENDSEC
  0
SECTION
  2
ENTITIES
  0
LINE
  5
2E
  8
1
  6
CONTINUOUS
 62
     7
 10
286.39943899999997
 20
5.2901910000000001
 30
0.0
 11
286.39943899999997
 21
195.3901909999999
 31
0.0
  0
LINE
  5
2F
  8
1
  6
CONTINUOUS
 62
     7
 10
286.39943899999997
 20
195.3901909999999
 30
0.0
 11
9.2994389999999996
 21
195.3901909999999
 31
0.0
  0
LINE
  5
30
  8
1
  6
CONTINUOUS
 62
     7
 10
9.2994389999999996
 20
195.3901909999999
 30
0.0
 11
9.2994389999999996
 21
5.2901910000000001
 31
0.0
  0
LINE
  5
31
  8
1
  6
CONTINUOUS
 62
     7
 10
9.2994389999999996
 20
5.2901910000000001
 30
0.0
 11
286.39943899999997
 21
5.2901910000000001
 31
0.0
  0
LINE
  5
32
  8
1
  6
CONTINUOUS
 62
     7
 10
96.399439000000001
 20
5.2901910000000001
 30
0.0
 11
96.399439000000001
 21
45.290191
 31
0.0
  0
LINE
  5
33
  8
1
  6
CONTINUOUS
 62
     7
 10
96.399439000000001
 20
45.290191
 30
0.0
 11
286.39943899999997
 21
45.290191
 31
0.0
  0
LINE
  5
34
  8
1
  6
CONTINUOUS
 62
     7
 10
96.399439000000001
 20
35.290191
 30
0.0
 11
286.39943899999997
 21
35.290191
 31
0.0
  0
LINE
  5
35
  8
1
  6
CONTINUOUS
 62
     7
 10
96.399439000000001
 20
25.290191
 30
0.0
 11
286.39943899999997
 21
25.290191
 31
0.0
  0
LINE
  5
36
  8
1
  6
CONTINUOUS
 62
     7
 10
96.399439000000001
 20
15.290191
 30
0.0
 11
286.39943899999997
 21
15.290191
 31
0.0
  0
LINE
  5
37
  8
1
  6
CONTINUOUS
 62
     7
 10
116.3994389999999
 20
45.290191
 30
0.0
 11
116.3994389999999
 21
5.2901910000000001
 31
0.0
  0
LINE
  5
38
  8
1
  6
CONTINUOUS
 62
     7
 10
136.399439
 20
5.2901910000000001
 30
0.0
 11
136.399439
 21
25.290191
 31
0.0
  0
LINE
  5
39
  8
1
  6
CONTINUOUS
 62
     7
 10
146.399439
 20
25.290191
 30
0.0
 11
146.399439
 21
45.290191
 31
0.0
  0
LINE
  5
3A
  8
1
  6
CONTINUOUS
 62
     7
 10
156.39943899999989
 20
5.2901910000000001
 30
0.0
 11
156.39943899999989
 21
25.290191
 31
0.0
  0
LINE
  5
3B
  8
1
  6
CONTINUOUS
 62
     7
 10
166.399439
 20
25.290191
 30
0.0
 11
166.399439
 21
45.290191
 31
0.0
  0
LINE
  5
3C
  8
1
  6
CONTINUOUS
 62
     7
 10
176.399439
 20
25.290191
 30
0.0
 11
176.399439
 21
5.2901910000000001
 31
0.0
  0
LINE
  5
3D
  8
1
  6
CONTINUOUS
 62
     7
 10
196.399439
 20
5.2901910000000001
 30
0.0
 11
196.399439
 21
45.290191
 31
0.0
  0
LINE
  5
3E
  8
1
  6
CONTINUOUS
 62
     7
 10
216.399439
 20
45.290191
 30
0.0
 11
216.399439
 21
15.290191
 31
0.0
  0
LINE
  5
3F
  8
1
  6
CONTINUOUS
 62
     7
 10
276.39943899999997
 20
5.2901910000000001
 30
0.0
 11
276.39943899999997
 21
15.290191
 31
0.0
  0
TEXT
  5
40
  8
1
  6
CONTINUOUS
 62
     7
 10
101.1994389999999
 20
39.490190999999989
 30
0.0
 40
5.0
  1
尺度
 41
0.7
  7
KANJI
  0
TEXT
  5
41
  8
1
  6
CONTINUOUS
 62
     7
 10
101.1994389999999
 20
29.190190999999992
 30
0.0
 40
5.0
  1
日付
 41
0.7
  7
KANJI
  0
TEXT
  5
42
  8
1
  6
CONTINUOUS
 62
     7
 10
101.1994389999999
 20
19.090191000000001
 30
0.0
 40
5.0
  1
承認
 41
0.7
  7
KANJI
  0
TEXT
  5
43
  8
1
  6
CONTINUOUS
 62
     7
 10
121.1994389999999
 20
19.090191000000001
 30
0.0
 40
5.0
  1
審査
 41
0.7
  7
KANJI
  0
TEXT
  5
44
  8
1
  6
CONTINUOUS
 62
     7
 10
141.6994389999999
 20
19.090191000000001
 30
0.0
 40
5.0
  1
検図
 41
0.7
  7
KANJI
  0
TEXT
  5
45
  8
1
  6
CONTINUOUS
 62
     7
 10
161.999439
 20
19.090191000000001
 30
0.0
 40
5.0
  1
設計
 41
0.7
  7
KANJI
  0
TEXT
  5
46
  8
1
  6
CONTINUOUS
 62
     7
 10
181.79943899999989
 20
19.090191000000001
 30
0.0
 40
5.0
  1
製図
 41
0.7
  7
KANJI
  0
TEXT
  5
47
  8
1
  6
CONTINUOUS
 62
     7
 10
151.399439
 20
39.390190999999987
 30
0.0
 40
5.0
  1
製番
 41
0.7
  7
KANJI
  0
TEXT
  5
48
  8
1
  6
CONTINUOUS
 62
     7
 10
151.399439
 20
29.090191000000001
 30
0.0
 40
5.0
  1
図番
 41
0.7
  7
KANJI
  0
TEXT
  5
49
  8
1
  6
CONTINUOUS
 62
     7
 10
198.79943899999989
 20
39.390190999999987
 30
0.0
 40
5.0
  1
納入先
 41
0.7
  7
KANJI
  0
TEXT
  5
4A
  8
1
  6
CONTINUOUS
 62
     7
 10
201.399439
 20
19.090191000000001
 30
0.0
 40
5.0
  1
図称
 41
0.7
  7
KANJI
  0
TEXT
  5
4B
  8
1
  6
CONTINUOUS
 62
     7
 10
198.6994389999999
 20
9.5901910000000008
 30
0.0
 40
5.0
  1
（株）パーカーコーポレーション
 41
0.7
  7
KANJI
  0
TEXT
  5
4C
  8
1
  6
CONTINUOUS
 62
     7
 10
101.9994389999999
 20
35.690190999999999
 30
0.0
 40
3.0
  1
SCALE
 41
0.5
  7
KANJI
  0
TEXT
  5
4D
  8
1
  6
CONTINUOUS
 62
     7
 10
102.9994389999999
 20
25.290191
 30
0.0
 40
3.0
  1
DATE
 41
0.5
  7
KANJI
  0
TEXT
  5
4E
  8
1
  6
CONTINUOUS
 62
     7
 10
97.699439000000012
 20
15.290191
 30
0.0
 40
3.0
  1
APPROVED
 41
0.5
  7
KANJI
  0
TEXT
  5
4F
  8
1
  6
CONTINUOUS
 62
     7
 10
111.599439
 20
15.290191
 30
0.0
 40
3.0
  1
BY
 41
0.5
  7
KANJI
  0
TEXT
  5
50
  8
1
  6
CONTINUOUS
 62
     7
 10
117.29943899999989
 20
15.290191
 30
0.0
 40
3.0
  1
INSPECTED
 41
0.5
  7
KANJI
  0
TEXT
  5
51
  8
1
  6
CONTINUOUS
 62
     7
 10
132.0994389999999
 20
15.290191
 30
0.0
 40
3.0
  1
BY
 41
0.5
  7
KANJI
  0
TEXT
  5
52
  8
1
  6
CONTINUOUS
 62
     7
 10
139.0994389999999
 20
15.290191
 30
0.0
 40
3.0
  1
CHECKED
 41
0.5
  7
KANJI
  0
TEXT
  5
53
  8
1
  6
CONTINUOUS
 62
     7
 10
150.79943899999989
 20
15.290191
 30
0.0
 40
3.0
  1
BY
 41
0.5
  7
KANJI
  0
TEXT
  5
54
  8
1
  6
CONTINUOUS
 62
     7
 10
156.99943899999991
 20
15.290191
 30
0.0
 40
3.0
  1
DESINGNED
 41
0.5
  7
KANJI
  0
TEXT
  5
55
  8
1
  6
CONTINUOUS
 62
     7
 10
171.89943899999989
 20
15.290191
 30
0.0
 40
3.0
  1
BY
 41
0.5
  7
KANJI
  0
TEXT
  5
56
  8
1
  6
CONTINUOUS
 62
     7
 10
180.29943899999989
 20
15.290191
 30
0.0
 40
3.0
  1
DRAWN
 41
0.5
  7
KANJI
  0
TEXT
  5
57
  8
1
  6
CONTINUOUS
 62
     7
 10
189.39943899999989
 20
15.290191
 30
0.0
 40
3.0
  1
BY
 41
0.5
  7
KANJI
  0
TEXT
  5
58
  8
1
  6
CONTINUOUS
 62
     7
 10
149.499439
 20
35.290191
 30
0.0
 40
3.0
  1
WORK
 41
0.5
  7
KANJI
  0
TEXT
  5
59
  8
1
  6
CONTINUOUS
 62
     7
 10
157.399439
 20
35.290191
 30
0.0
 40
3.0
  1
No.
 41
0.576923
  7
KANJI
  0
TEXT
  5
5A
  8
1
  6
CONTINUOUS
 62
     7
 10
151.499439
 20
25.290191
 30
0.0
 40
3.0
  1
DWG
 41
0.5
  7
KANJI
  0
TEXT
  5
5B
  8
1
  6
CONTINUOUS
 62
     7
 10
156.39943899999989
 20
25.290191
 30
0.0
 40
3.0
  1
No.
 41
0.576923
  7
KANJI
  0
TEXT
  5
5C
  8
1
  6
CONTINUOUS
 62
     7
 10
200.0994389999999
 20
35.290191
 30
0.0
 40
3.0
  1
CUSTOMER
 41
0.5
  7
KANJI
  0
TEXT
  5
5D
  8
1
  6
CONTINUOUS
 62
     7
 10
201.499439
 20
15.290191
 30
0.0
 40
3.0
  1
DWG
 41
0.5
  7
KANJI
  0
TEXT
  5
5E
  8
1
  6
CONTINUOUS
 62
     7
 10
213.499439
 20
5.2901910000000001
 30
0.0
 40
3.0
  1
PARKER
 41
0.777778
  7
KANJI
  0
TEXT
  5
5F
  8
1
  6
CONTINUOUS
 62
     7
 10
231.09943899999999
 20
5.2901910000000001
 30
0.0
 40
3.0
  1
CORPORATION
 41
0.80303
  7
KANJI
  0
LINE
  5
60
  8
5
  6
CONTINUOUS
 62
     7
 10
406.04751099999987
 20
300.02375599999988
 30
0.0
 11
6.0475110000000001
 21
300.02375599999988
 31
0.0
  0
LINE
  5
61
  8
1
  6
CONTINUOUS
 62
     7
 10
286.40418199999999
 20
188.0003889999999
 30
0.0
 11
286.40418199999999
 21
187.8706169999999
 31
0.0
  0
LINE
  5
62
  8
1
  6
CONTINUOUS
 62
     7
 10
286.40418199999999
 20
187.8706169999999
 30
0.0
 11
285.90418199999988
 21
187.8706169999999
 31
0.0
  0
LINE
  5
63
  8
1
  6
CONTINUOUS
 62
     7
 10
285.90418199999988
 20
187.8706169999999
 30
0.0
 11
285.90418199999988
 21
188.0003889999999
 31
0.0
  0
LINE
  5
64
  8
1
  6
CONTINUOUS
 62
     7
 10
283.651251
 20
195.3180659999999
 30
0.0
 11
283.69495999999998
 21
195.30003899999991
 31
0.0
  0
LINE
  5
65
  8
1
  6
CONTINUOUS
 62
     7
 10
283.69495999999998
 20
195.30003899999991
 30
0.0
 11
283.80631499999993
 21
195.23515399999999
 31
0.0
  0
TEXT
  5
66
  8
1
  6
CONTINUOUS
 62
     7
 10
200.49759399999999
 20
29.287641999999991
 30
0.0
 40
5.0
  1
名称
 41
0.833333
  7
KANJI
  0
TEXT
  5
67
  8
1
  6
CONTINUOUS
 62
     7
 10
206.79943899999989
 20
15.290191
 30
0.0
 40
3.0
  1
NAME
 41
0.5
  7
KANJI
  0
TEXT
  5
68
  8
1
  6
CONTINUOUS
 62
     7
 10
201.84785899999989
 20
25.290191
 30
0.0
 40
3.0
  1
TITLE
 41
0.5
  7
KANJI
  0
TEXT
  5
69
  8
1
  6
CONTINUOUS
 62
     7
 10
125.31041399999999
 20
37.753215999999988
 30
0.0
 40
5.0
  1
1/2
 41
0.5
  7
KANJI
  0
TEXT
  5
6A
  8
1
  6
CONTINUOUS
 62
     7
 10
120.17756
 20
28.059602999999999
 30
0.0
 40
5.0
  1
2007.4.9
 41
0.5555560000000001
  7
KANJI
  0
TEXT
  5
6B
  8
1
  6
CONTINUOUS
 62
     7
 10
221.0318169999999
 20
17.590501
 30
0.0
 40
5.0
  1
外観仕様図
 41
0.833333
  7
KANJI
  0
TEXT
  5
6C
  8
1
  6
CONTINUOUS
 62
     7
 10
219.8847769999999
 20
27.94148599999999
 30
0.0
 40
5.0
  1
ＰＨＳ30
 41
0.714286
  7
KANJI
  0
LINE
  5
6D
  8
1
  6
CONTINUOUS
 62
     7
 10
54.832329000000001
 20
120.212878
 30
0.0
 11
55.332329000000001
 21
120.212878
 31
0.0
  0
LINE
  5
6E
  8
1
  6
CONTINUOUS
 62
     7
 10
55.332329000000001
 20
120.342651
 30
0.0
 11
55.332329000000001
 21
120.184809
 31
0.0
  0
LINE
  5
6F
  8
1
  6
CONTINUOUS
 62
     7
 10
54.832329000000001
 20
120.342651
 30
0.0
 11
54.832329000000001
 21
120.184809
 31
0.0
  0
LINE
  5
70
  8
1
  6
CONTINUOUS
 62
     7
 10
83.232328999999993
 20
119.056561
 30
0.0
 11
82.757846999999998
 21
118.556561
 31
0.0
  0
LINE
  5
71
  8
1
  6
CONTINUOUS
 62
     7
 10
66.444004000000007
 20
136.628546
 30
0.0
 11
66.582329000000001
 21
136.65137499999989
 31
0.0
  0
LINE
  5
72
  8
1
  6
CONTINUOUS
 62
     7
 10
65.765221999999994
 20
136.49376100000001
 30
0.0
 11
66.444004000000007
 21
136.628546
 31
0.0
  0
LINE
  5
73
  8
1
  6
CONTINUOUS
 62
     7
 10
65.332329000000001
 20
136.3938389999999
 30
0.0
 11
65.765221999999994
 21
136.49376100000001
 31
0.0
  0
LINE
  5
74
  8
1
  6
CONTINUOUS
 62
     7
 10
87.549717999999984
 20
127.6466029999999
 30
0.0
 11
87.585259999999991
 21
127.660327
 31
0.0
  0
LINE
  5
75
  8
1
  6
CONTINUOUS
 62
     7
 10
52.452640999999993
 20
127.1680879999999
 30
0.0
 11
52.41424099999999
 21
127.16010300000001
 31
0.0
  0
LINE
  5
76
  8
1
  6
CONTINUOUS
 62
     7
 10
87.712017000000003
 20
127.1680879999999
 30
0.0
 11
87.750416999999999
 21
127.16010300000001
 31
0.0
  0
LINE
  5
77
  8
1
  6
CONTINUOUS
 62
     7
 10
87.440916000000001
 20
118.562932
 30
0.0
 11
87.199937000000006
 21
118.556561
 31
0.0
  0
LINE
  5
78
  8
1
  6
CONTINUOUS
 62
     7
 10
87.639756999999989
 20
118.568175
 30
0.0
 11
87.440916000000001
 21
118.562932
 31
0.0
  0
LINE
  5
79
  8
1
  6
CONTINUOUS
 62
     7
 10
87.907043999999999
 20
118.5750649999999
 30
0.0
 11
87.639756999999989
 21
118.568175
 31
0.0
  0
LINE
  5
7A
  8
1
  6
CONTINUOUS
 62
     7
 10
88.035863000000006
 20
118.578453
 30
0.0
 11
87.907043999999999
 21
118.5750649999999
 31
0.0
  0
LINE
  5
7B
  8
1
  6
CONTINUOUS
 62
     7
 10
88.127880000000005
 20
118.58087399999989
 30
0.0
 11
88.035863000000006
 21
118.578453
 31
0.0
  0
LINE
  5
7C
  8
1
  6
CONTINUOUS
 62
     7
 10
88.199938000000003
 20
118.5827289999999
 30
0.0
 11
88.127880000000005
 21
118.58087399999989
 31
0.0
  0
LINE
  5
7D
  8
1
  6
CONTINUOUS
 62
     7
 10
52.03678
 20
118.58087399999989
 30
0.0
 11
51.964719999999993
 21
118.5827289999999
 31
0.0
  0
LINE
  5
7E
  8
1
  6
CONTINUOUS
 62
     7
 10
52.128797999999989
 20
118.578453
 30
0.0
 11
52.03678
 21
118.58087399999989
 31
0.0
  0
LINE
  5
7F
  8
1
  6
CONTINUOUS
 62
     7
 10
52.257612999999999
 20
118.5750649999999
 30
0.0
 11
52.128797999999989
 21
118.578453
 31
0.0
  0
LINE
  5
80
  8
1
  6
CONTINUOUS
 62
     7
 10
52.524912999999991
 20
118.568175
 30
0.0
 11
52.257612999999999
 21
118.5750649999999
 31
0.0
  0
LINE
  5
81
  8
1
  6
CONTINUOUS
 62
     7
 10
52.723751
 20
118.562932
 30
0.0
 11
52.524912999999991
 21
118.568175
 31
0.0
  0
LINE
  5
82
  8
1
  6
CONTINUOUS
 62
     7
 10
52.96472099999999
 20
118.556561
 30
0.0
 11
52.723751
 21
118.562932
 31
0.0
  0
LINE
  5
83
  8
1
  6
CONTINUOUS
 62
     7
 10
74.171666000000002
 20
141.29695399999989
 30
0.0
 11
74.091161
 21
141.30656099999999
 31
0.0
  0
LINE
  5
84
  8
1
  6
CONTINUOUS
 62
     7
 10
74.249077
 20
141.26850099999999
 30
0.0
 11
74.171666000000002
 21
141.29695399999989
 31
0.0
  0
LINE
  5
85
  8
1
  6
CONTINUOUS
 62
     7
 10
74.320419000000001
 20
141.222296
 30
0.0
 11
74.249077
 21
141.26850099999999
 31
0.0
  0
LINE
  5
86
  8
1
  6
CONTINUOUS
 62
     7
 10
74.382952000000003
 20
141.16011399999991
 30
0.0
 11
74.320419000000001
 21
141.222296
 31
0.0
  0
LINE
  5
87
  8
1
  6
CONTINUOUS
 62
     7
 10
74.434269999999984
 20
141.0843459999999
 30
0.0
 11
74.382952000000003
 21
141.16011399999991
 31
0.0
  0
LINE
  5
88
  8
1
  6
CONTINUOUS
 62
     7
 10
74.472403999999997
 20
140.99790300000001
 30
0.0
 11
74.434269999999984
 21
141.0843459999999
 31
0.0
  0
LINE
  5
89
  8
1
  6
CONTINUOUS
 62
     7
 10
74.495885999999999
 20
140.90410600000001
 30
0.0
 11
74.472403999999997
 21
140.99790300000001
 31
0.0
  0
LINE
  5
8A
  8
1
  6
CONTINUOUS
 62
     7
 10
74.503815000000003
 20
140.80656099999999
 30
0.0
 11
74.495885999999999
 21
140.90410600000001
 31
0.0
  0
LINE
  5
8B
  8
1
  6
CONTINUOUS
 62
     7
 10
77.579768999999999
 20
137.105334
 30
0.0
 11
77.584479999999999
 21
137.05656099999999
 31
0.0
  0
LINE
  5
8C
  8
1
  6
CONTINUOUS
 62
     7
 10
77.565818000000007
 20
137.15223199999991
 30
0.0
 11
77.579768999999999
 21
137.105334
 31
0.0
  0
LINE
  5
8D
  8
1
  6
CONTINUOUS
 62
     7
 10
77.543161999999995
 20
137.19545400000001
 30
0.0
 11
77.565818000000007
 21
137.15223199999991
 31
0.0
  0
LINE
  5
8E
  8
1
  6
CONTINUOUS
 62
     7
 10
77.512671999999995
 20
137.23333799999989
 30
0.0
 11
77.543161999999995
 21
137.19545400000001
 31
0.0
  0
LINE
  5
8F
  8
1
  6
CONTINUOUS
 62
     7
 10
77.475519999999975
 20
137.26442800000001
 30
0.0
 11
77.512671999999995
 21
137.23333799999989
 31
0.0
  0
LINE
  5
90
  8
1
  6
CONTINUOUS
 62
     7
 10
77.433132999999998
 20
137.28753099999989
 30
0.0
 11
77.475519999999975
 21
137.26442800000001
 31
0.0
  0
LINE
  5
91
  8
1
  6
CONTINUOUS
 62
     7
 10
77.387141999999997
 20
137.30175700000001
 30
0.0
 11
77.433132999999998
 21
137.28753099999989
 31
0.0
  0
LINE
  5
92
  8
1
  6
CONTINUOUS
 62
     7
 10
77.339311999999993
 20
137.30656099999999
 30
0.0
 11
77.387141999999997
 21
137.30175700000001
 31
0.0
  0
LINE
  5
93
  8
1
  6
CONTINUOUS
 62
     7
 10
70.252312000000003
 20
140.90410600000001
 30
0.0
 11
70.259105000000005
 21
140.80656099999999
 31
0.0
  0
LINE
  5
94
  8
1
  6
CONTINUOUS
 62
     7
 10
70.232192999999995
 20
140.99790300000001
 30
0.0
 11
70.252312000000003
 21
140.90410600000001
 31
0.0
  0
LINE
  5
95
  8
1
  6
CONTINUOUS
 62
     7
 10
70.19952099999999
 20
141.0843459999999
 30
0.0
 11
70.232192999999995
 21
140.99790300000001
 31
0.0
  0
LINE
  5
96
  8
1
  6
CONTINUOUS
 62
     7
 10
70.155552
 20
141.16011399999991
 30
0.0
 11
70.19952099999999
 21
141.0843459999999
 31
0.0
  0
LINE
  5
97
  8
1
  6
CONTINUOUS
 62
     7
 10
70.101976000000008
 20
141.222296
 30
0.0
 11
70.155552
 21
141.16011399999991
 31
0.0
  0
LINE
  5
98
  8
1
  6
CONTINUOUS
 62
     7
 10
70.040851000000004
 20
141.26850099999999
 30
0.0
 11
70.101976000000008
 21
141.222296
 31
0.0
  0
LINE
  5
99
  8
1
  6
CONTINUOUS
 62
     7
 10
69.974526999999995
 20
141.29695399999989
 30
0.0
 11
70.040851000000004
 21
141.26850099999999
 31
0.0
  0
LINE
  5
9A
  8
1
  6
CONTINUOUS
 62
     7
 10
69.905552
 20
141.30656099999999
 30
0.0
 11
69.974526999999995
 21
141.29695399999989
 31
0.0
  0
LINE
  5
9B
  8
1
  6
CONTINUOUS
 62
     7
 10
72.675169999999994
 20
137.105334
 30
0.0
 11
72.678732999999994
 21
137.05656099999999
 31
0.0
  0
LINE
  5
9C
  8
1
  6
CONTINUOUS
 62
     7
 10
72.664616000000009
 20
137.15223199999991
 30
0.0
 11
72.675169999999994
 21
137.105334
 31
0.0
  0
LINE
  5
9D
  8
1
  6
CONTINUOUS
 62
     7
 10
72.647478000000007
 20
137.19545400000001
 30
0.0
 11
72.664616000000009
 21
137.15223199999991
 31
0.0
  0
LINE
  5
9E
  8
1
  6
CONTINUOUS
 62
     7
 10
72.624414000000002
 20
137.23333799999989
 30
0.0
 11
72.647478000000007
 21
137.19545400000001
 31
0.0
  0
LINE
  5
9F
  8
1
  6
CONTINUOUS
 62
     7
 10
72.596310000000003
 20
137.26442800000001
 30
0.0
 11
72.624414000000002
 21
137.23333799999989
 31
0.0
  0
LINE
  5
A0
  8
1
  6
CONTINUOUS
 62
     7
 10
72.564246999999995
 20
137.28753099999989
 30
0.0
 11
72.596310000000003
 21
137.26442800000001
 31
0.0
  0
LINE
  5
A1
  8
1
  6
CONTINUOUS
 62
     7
 10
72.529456999999994
 20
137.30175700000001
 30
0.0
 11
72.564246999999995
 21
137.28753099999989
 31
0.0
  0
LINE
  5
A2
  8
1
  6
CONTINUOUS
 62
     7
 10
72.493275999999994
 20
137.30656099999999
 30
0.0
 11
72.529456999999994
 21
137.30175700000001
 31
0.0
  0
LINE
  5
A3
  8
1
  6
CONTINUOUS
 62
     7
 10
80.437240000000003
 20
109.990154
 30
0.0
 11
80.323402000000002
 21
110.1641179999999
 31
0.0
  0
LINE
  5
A4
  8
1
  6
CONTINUOUS
 62
     7
 10
80.526741999999999
 20
109.695083
 30
0.0
 11
80.437240000000003
 21
109.990154
 31
0.0
  0
LINE
  5
A5
  8
1
  6
CONTINUOUS
 62
     7
 10
80.530538000000007
 20
109.50716899999991
 30
0.0
 11
80.526741999999999
 21
109.695083
 31
0.0
  0
LINE
  5
A6
  8
1
  6
CONTINUOUS
 62
     7
 10
75.990557999999993
 20
110.1115929999999
 30
0.0
 11
75.948042000000001
 21
109.908086
 31
0.0
  0
LINE
  5
A7
  8
1
  6
CONTINUOUS
 62
     7
 10
76.135918000000004
 20
110.383527
 30
0.0
 11
75.990557999999993
 21
110.1115929999999
 31
0.0
  0
LINE
  5
A8
  8
1
  6
CONTINUOUS
 62
     7
 10
76.266108000000003
 20
110.519086
 30
0.0
 11
76.135918000000004
 21
110.383527
 31
0.0
  0
LINE
  5
A9
  8
1
  6
CONTINUOUS
 62
     7
 10
80.311789000000005
 20
107.266283
 30
0.0
 11
80.351558999999995
 21
107.46142999999999
 31
0.0
  0
LINE
  5
AA
  8
1
  6
CONTINUOUS
 62
     7
 10
80.176676999999998
 20
107.003159
 30
0.0
 11
80.311789000000005
 21
107.266283
 31
0.0
  0
LINE
  5
AB
  8
1
  6
CONTINUOUS
 62
     7
 10
79.954584999999994
 20
106.791511
 30
0.0
 11
80.176676999999998
 21
107.003159
 31
0.0
  0
LINE
  5
AC
  8
1
  6
CONTINUOUS
 62
     7
 10
79.678184000000002
 20
106.668862
 30
0.0
 11
79.954584999999994
 21
106.791511
 31
0.0
  0
LINE
  5
AD
  8
1
  6
CONTINUOUS
 62
     7
 10
79.376542999999998
 20
106.64329499999999
 30
0.0
 11
79.678184000000002
 21
106.668862
 31
0.0
  0
LINE
  5
AE
  8
1
  6
CONTINUOUS
 62
     7
 10
76.392050999999995
 20
106.92710099999999
 30
0.0
 11
76.587198000000001
 21
106.887331
 31
0.0
  0
LINE
  5
AF
  8
1
  6
CONTINUOUS
 62
     7
 10
76.128926000000007
 20
107.0622129999999
 30
0.0
 11
76.392050999999995
 21
106.92710099999999
 31
0.0
  0
LINE
  5
B0
  8
1
  6
CONTINUOUS
 62
     7
 10
75.917279000000008
 20
107.28430400000001
 30
0.0
 11
76.128926000000007
 21
107.0622129999999
 31
0.0
  0
LINE
  5
B1
  8
1
  6
CONTINUOUS
 62
     7
 10
75.794629999999998
 20
107.560705
 30
0.0
 11
75.917279000000008
 21
107.28430400000001
 31
0.0
  0
LINE
  5
B2
  8
1
  6
CONTINUOUS
 62
     7
 10
75.769063000000003
 20
107.8623469999999
 30
0.0
 11
75.794629999999998
 21
107.560705
 31
0.0
  0
LINE
  5
B3
  8
1
  6
CONTINUOUS
 62
     7
 10
77.803130999999993
 20
111.77048000000001
 30
0.0
 11
77.591288000000006
 21
111.63104299999991
 31
0.0
  0
LINE
  5
B4
  8
1
  6
CONTINUOUS
 62
     7
 10
78.157281999999995
 20
111.885582
 30
0.0
 11
77.803130999999993
 21
111.77048000000001
 31
0.0
  0
LINE
  5
B5
  8
1
  6
CONTINUOUS
 62
     7
 10
78.552738000000005
 20
111.8779989999999
 30
0.0
 11
78.157281999999995
 21
111.885582
 31
0.0
  0
LINE
  5
B6
  8
1
  6
CONTINUOUS
 62
     7
 10
78.914131000000012
 20
111.738687
 30
0.0
 11
78.552738000000005
 21
111.8779989999999
 31
0.0
  0
LINE
  5
B7
  8
1
  6
CONTINUOUS
 62
     7
 10
79.211444999999998
 20
111.48929800000001
 30
0.0
 11
78.914131000000012
 21
111.738687
 31
0.0
  0
LINE
  5
B8
  8
1
  6
CONTINUOUS
 62
     7
 10
76.287345000000002
 20
110.354118
 30
0.0
 11
76.352591000000004
 21
110.41601899999991
 31
0.0
  0
LINE
  5
B9
  8
1
  6
CONTINUOUS
 62
     7
 10
76.146259999999998
 20
110.141244
 30
0.0
 11
76.287345000000002
 21
110.354118
 31
0.0
  0
LINE
  5
BA
  8
1
  6
CONTINUOUS
 62
     7
 10
76.082072999999994
 20
109.896359
 30
0.0
 11
76.146259999999998
 21
110.141244
 31
0.0
  0
LINE
  5
BB
  8
1
  6
CONTINUOUS
 62
     7
 10
80.398871999999997
 20
109.60880299999999
 30
0.0
 11
80.396505999999988
 21
109.5188959999999
 31
0.0
  0
LINE
  5
BC
  8
1
  6
CONTINUOUS
 62
     7
 10
80.348107999999996
 20
109.85908999999999
 30
0.0
 11
80.398871999999997
 21
109.60880299999999
 31
0.0
  0
LINE
  5
BD
  8
1
  6
CONTINUOUS
 62
     7
 10
80.220336000000003
 20
110.077635
 30
0.0
 11
80.348107999999996
 21
109.85908999999999
 31
0.0
  0
LINE
  5
BE
  8
1
  6
CONTINUOUS
 62
     7
 10
75.908481999999992
 20
107.67512499999999
 30
0.0
 11
75.903094999999993
 21
107.85061999999991
 31
0.0
  0
LINE
  5
BF
  8
1
  6
CONTINUOUS
 62
     7
 10
75.984541000000007
 20
107.435706
 30
0.0
 11
75.908481999999992
 21
107.67512499999999
 31
0.0
  0
LINE
  5
C0
  8
1
  6
CONTINUOUS
 62
     7
 10
76.141175000000004
 20
107.2266249999999
 30
0.0
 11
75.984541000000007
 21
107.435706
 31
0.0
  0
LINE
  5
C1
  8
1
  6
CONTINUOUS
 62
     7
 10
76.354050999999984
 20
107.085545
 30
0.0
 11
76.141175000000004
 21
107.2266249999999
 31
0.0
  0
LINE
  5
C2
  8
1
  6
CONTINUOUS
 62
     7
 10
76.598923999999997
 20
107.02136299999999
 30
0.0
 11
76.354050999999984
 21
107.085545
 31
0.0
  0
LINE
  5
C3
  8
1
  6
CONTINUOUS
 62
     7
 10
78.961714999999998
 20
111.5446909999999
 30
0.0
 11
79.108378000000002
 21
111.4028149999999
 31
0.0
  0
LINE
  5
C4
  8
1
  6
CONTINUOUS
 62
     7
 10
78.669968999999995
 20
111.7062219999999
 30
0.0
 11
78.961714999999998
 21
111.5446909999999
 31
0.0
  0
LINE
  5
C5
  8
1
  6
CONTINUOUS
 62
     7
 10
78.329490000000007
 20
111.7653769999999
 30
0.0
 11
78.669968999999995
 21
111.7062219999999
 31
0.0
  0
LINE
  5
C6
  8
1
  6
CONTINUOUS
 62
     7
 10
77.994951
 20
111.70733299999991
 30
0.0
 11
78.329490000000007
 21
111.7653769999999
 31
0.0
  0
LINE
  5
C7
  8
1
  6
CONTINUOUS
 62
     7
 10
77.677770999999993
 20
111.52797700000001
 30
0.0
 11
77.994951
 21
111.70733299999991
 31
0.0
  0
LINE
  5
C8
  8
1
  6
CONTINUOUS
 62
     7
 10
79.556983000000002
 20
106.781746
 30
0.0
 11
79.388268999999994
 21
106.7773269999999
 31
0.0
  0
LINE
  5
C9
  8
1
  6
CONTINUOUS
 62
     7
 10
79.797209999999993
 20
106.855779
 30
0.0
 11
79.556983000000002
 21
106.781746
 31
0.0
  0
LINE
  5
CA
  8
1
  6
CONTINUOUS
 62
     7
 10
80.007502000000002
 20
107.010357
 30
0.0
 11
79.797209999999993
 21
106.855779
 31
0.0
  0
LINE
  5
CB
  8
1
  6
CONTINUOUS
 62
     7
 10
80.151382999999996
 20
107.22394299999991
 30
0.0
 11
80.007502000000002
 21
107.010357
 31
0.0
  0
LINE
  5
CC
  8
1
  6
CONTINUOUS
 62
     7
 10
80.217515999999989
 20
107.47315500000001
 30
0.0
 11
80.151382999999996
 21
107.22394299999991
 31
0.0
  0
LINE
  5
CD
  8
1
  6
CONTINUOUS
 62
     7
 10
79.883887000000001
 20
109.579459
 30
0.0
 11
79.883010999999996
 21
109.5638209999999
 31
0.0
  0
LINE
  5
CE
  8
1
  6
CONTINUOUS
 62
     7
 10
79.869918999999996
 20
109.6682179999999
 30
0.0
 11
79.883887000000001
 21
109.579459
 31
0.0
  0
LINE
  5
CF
  8
1
  6
CONTINUOUS
 62
     7
 10
79.825473000000002
 20
109.746306
 30
0.0
 11
79.869918999999996
 21
109.6682179999999
 31
0.0
  0
LINE
  5
D0
  8
1
  6
CONTINUOUS
 62
     7
 10
78.075634999999991
 20
111.180257
 30
0.0
 11
78.009097999999994
 21
111.1331169999999
 31
0.0
  0
LINE
  5
D1
  8
1
  6
CONTINUOUS
 62
     7
 10
78.232285000000005
 20
111.2403489999999
 30
0.0
 11
78.075634999999991
 21
111.180257
 31
0.0
  0
LINE
  5
D2
  8
1
  6
CONTINUOUS
 62
     7
 10
78.400186000000005
 20
111.245209
 30
0.0
 11
78.232285000000005
 21
111.2403489999999
 31
0.0
  0
LINE
  5
D3
  8
1
  6
CONTINUOUS
 62
     7
 10
78.572941999999998
 20
111.18737400000001
 30
0.0
 11
78.400186000000005
 21
111.245209
 31
0.0
  0
LINE
  5
D4
  8
1
  6
CONTINUOUS
 62
     7
 10
78.713518000000008
 20
111.0714879999999
 30
0.0
 11
78.572941999999998
 21
111.18737400000001
 31
0.0
  0
LINE
  5
D5
  8
1
  6
CONTINUOUS
 62
     7
 10
76.597421999999995
 20
109.86698799999991
 30
0.0
 11
76.595568
 21
109.851434
 31
0.0
  0
LINE
  5
D6
  8
1
  6
CONTINUOUS
 62
     7
 10
76.626590000000007
 20
109.9519729999999
 30
0.0
 11
76.597421999999995
 21
109.86698799999991
 31
0.0
  0
LINE
  5
D7
  8
1
  6
CONTINUOUS
 62
     7
 10
76.683920000000001
 20
110.021157
 30
0.0
 11
76.626590000000007
 21
109.9519729999999
 31
0.0
  0
LINE
  5
D8
  8
1
  6
CONTINUOUS
 62
     7
 10
76.416352000000003
 20
107.7650519999999
 30
0.0
 11
76.416588000000004
 21
107.805696
 31
0.0
  0
LINE
  5
D9
  8
1
  6
CONTINUOUS
 62
     7
 10
76.436625000000006
 20
107.683645
 30
0.0
 11
76.416352000000003
 21
107.7650519999999
 31
0.0
  0
LINE
  5
DA
  8
1
  6
CONTINUOUS
 62
     7
 10
76.482752000000005
 20
107.61345900000001
 30
0.0
 11
76.436625000000006
 21
107.683645
 31
0.0
  0
LINE
  5
DB
  8
1
  6
CONTINUOUS
 62
     7
 10
76.556012999999993
 20
107.5592239999999
 30
0.0
 11
76.482752000000005
 21
107.61345900000001
 31
0.0
  0
LINE
  5
DC
  8
1
  6
CONTINUOUS
 62
     7
 10
76.643849000000003
 20
107.534856
 30
0.0
 11
76.556012999999993
 21
107.5592239999999
 31
0.0
  0
LINE
  5
DD
  8
1
  6
CONTINUOUS
 62
     7
 10
79.251901000000004
 20
132.840022
 30
0.0
 11
79.082329000000001
 21
132.93156099999999
 31
0.0
  0
LINE
  5
DE
  8
1
  6
CONTINUOUS
 62
     7
 10
79.393489999999986
 20
132.761887
 30
0.0
 11
79.251901000000004
 21
132.840022
 31
0.0
  0
LINE
  5
DF
  8
1
  6
CONTINUOUS
 62
     7
 10
79.495170000000002
 20
132.70480599999999
 30
0.0
 11
79.393489999999986
 21
132.761887
 31
0.0
  0
LINE
  5
E0
  8
1
  6
CONTINUOUS
 62
     7
 10
79.55941
 20
132.66832099999991
 30
0.0
 11
79.495170000000002
 21
132.70480599999999
 31
0.0
  0
LINE
  5
E1
  8
1
  6
CONTINUOUS
 62
     7
 10
79.582329000000001
 20
132.655224
 30
0.0
 11
79.55941
 21
132.66832099999991
 31
0.0
  0
LINE
  5
E2
  8
1
  6
CONTINUOUS
 62
     7
 10
60.912756999999992
 20
132.840022
 30
0.0
 11
61.082329000000001
 21
132.93156099999999
 31
0.0
  0
LINE
  5
E3
  8
1
  6
CONTINUOUS
 62
     7
 10
60.771168000000003
 20
132.761887
 30
0.0
 11
60.912756999999992
 21
132.840022
 31
0.0
  0
LINE
  5
E4
  8
1
  6
CONTINUOUS
 62
     7
 10
60.669488000000001
 20
132.70480599999999
 30
0.0
 11
60.771168000000003
 21
132.761887
 31
0.0
  0
LINE
  5
E5
  8
1
  6
CONTINUOUS
 62
     7
 10
60.605246999999999
 20
132.66832099999991
 30
0.0
 11
60.669488000000001
 21
132.70480599999999
 31
0.0
  0
LINE
  5
E6
  8
1
  6
CONTINUOUS
 62
     7
 10
60.582329000000001
 20
132.655224
 30
0.0
 11
60.605246999999999
 21
132.66832099999991
 31
0.0
  0
LINE
  5
E7
  8
1
  6
CONTINUOUS
 62
     7
 10
74.220725000000002
 20
112.344047
 30
0.0
 11
73.860443000000004
 21
112.38797199999991
 31
0.0
  0
LINE
  5
E8
  8
1
  6
CONTINUOUS
 62
     7
 10
74.394098999999997
 20
112.29523999999989
 30
0.0
 11
74.220725000000002
 21
112.344047
 31
0.0
  0
LINE
  5
E9
  8
1
  6
CONTINUOUS
 62
     7
 10
74.528416000000007
 20
112.22544599999991
 30
0.0
 11
74.394098999999997
 21
112.29523999999989
 31
0.0
  0
LINE
  5
EA
  8
1
  6
CONTINUOUS
 62
     7
 10
74.075510999999992
 20
112.29088899999989
 30
0.0
 11
73.860443000000004
 21
112.38797199999991
 31
0.0
  0
LINE
  5
EB
  8
1
  6
CONTINUOUS
 62
     7
 10
74.264330999999999
 20
112.203931
 30
0.0
 11
74.075510999999992
 21
112.29088899999989
 31
0.0
  0
LINE
  5
EC
  8
1
  6
CONTINUOUS
 62
     7
 10
74.343849000000006
 20
112.166507
 30
0.0
 11
74.264330999999999
 21
112.203931
 31
0.0
  0
LINE
  5
ED
  8
1
  6
CONTINUOUS
 62
     7
 10
74.401263
 20
112.139651
 30
0.0
 11
74.343849000000006
 21
112.166507
 31
0.0
  0
LINE
  5
EE
  8
1
  6
CONTINUOUS
 62
     7
 10
74.435792000000006
 20
112.123812
 30
0.0
 11
74.401263
 21
112.139651
 31
0.0
  0
LINE
  5
EF
  8
1
  6
CONTINUOUS
 62
     7
 10
74.447250999999994
 20
112.1187029999999
 30
0.0
 11
74.435792000000006
 21
112.123812
 31
0.0
  0
LINE
  5
F0
  8
1
  6
CONTINUOUS
 62
     7
 10
77.810119999999998
 20
115.3934669999999
 30
0.0
 11
77.93232900000001
 21
116.154582
 31
0.0
  0
LINE
  5
F1
  8
1
  6
CONTINUOUS
 62
     7
 10
77.757054000000011
 20
115.07053399999999
 30
0.0
 11
77.810119999999998
 21
115.3934669999999
 31
0.0
  0
LINE
  5
F2
  8
1
  6
CONTINUOUS
 62
     7
 10
77.737806000000006
 20
114.9592429999999
 30
0.0
 11
77.757054000000011
 21
115.07053399999999
 31
0.0
  0
LINE
  5
F3
  8
1
  6
CONTINUOUS
 62
     7
 10
77.732768000000007
 20
114.93137900000001
 30
0.0
 11
77.737806000000006
 21
114.9592429999999
 31
0.0
  0
LINE
  5
F4
  8
1
  6
CONTINUOUS
 62
     7
 10
77.731047000000004
 20
114.92210300000001
 30
0.0
 11
77.732768000000007
 21
114.93137900000001
 31
0.0
  0
LINE
  5
F5
  8
1
  6
CONTINUOUS
 62
     7
 10
77.760231999999988
 20
115.56737200000001
 30
0.0
 11
77.682328999999996
 21
115.10199399999991
 31
0.0
  0
LINE
  5
F6
  8
1
  6
CONTINUOUS
 62
     7
 10
77.93232900000001
 20
116.154573
 30
0.0
 11
77.760231999999988
 21
115.56737200000001
 31
0.0
  0
LINE
  5
F7
  8
1
  6
CONTINUOUS
 62
     7
 10
65.384726000000001
 20
136.52440200000001
 30
0.0
 11
66.582329000000001
 21
136.75579999999999
 31
0.0
  0
LINE
  5
F8
  8
1
  6
CONTINUOUS
 62
     7
 10
65.332329000000001
 20
136.51071099999999
 30
0.0
 11
65.384726000000001
 21
136.52440200000001
 31
0.0
  0
LINE
  5
F9
  8
1
  6
CONTINUOUS
 62
     7
 10
86.553868999999992
 20
129.08300999999989
 30
0.0
 11
87.585259999999991
 21
127.660327
 31
0.0
  0
LINE
  5
FA
  8
1
  6
CONTINUOUS
 62
     7
 10
85.448181999999989
 20
130.37055899999999
 30
0.0
 11
86.553868999999992
 21
129.08300999999989
 31
0.0
  0
LINE
  5
FB
  8
1
  6
CONTINUOUS
 62
     7
 10
53.610788999999997
 20
129.08300999999989
 30
0.0
 11
54.716475000000003
 21
130.37055899999999
 31
0.0
  0
LINE
  5
FC
  8
1
  6
CONTINUOUS
 62
     7
 10
52.579397
 20
127.660327
 30
0.0
 11
53.610788999999997
 21
129.08300999999989
 31
0.0
  0
LINE
  5
FD
  8
1
  6
CONTINUOUS
 62
     7
 10
52.463287999999999
 20
127.42128599999999
 30
0.0
 11
52.579397
 21
127.660327
 31
0.0
  0
LINE
  5
FE
  8
1
  6
CONTINUOUS
 62
     7
 10
52.41424099999999
 20
127.16010300000001
 30
0.0
 11
52.463287999999999
 21
127.42128599999999
 31
0.0
  0
LINE
  5
FF
  8
1
  6
CONTINUOUS
 62
     7
 10
87.701369
 20
127.42128599999999
 30
0.0
 11
87.750416999999999
 21
127.16010300000001
 31
0.0
  0
LINE
  5
100
  8
1
  6
CONTINUOUS
 62
     7
 10
87.585259999999991
 20
127.660327
 30
0.0
 11
87.701369
 21
127.42128599999999
 31
0.0
  0
LINE
  5
101
  8
1
  6
CONTINUOUS
 62
     7
 10
82.392750000000007
 20
133.069895
 30
0.0
 11
82.629875999999996
 21
132.89574799999991
 31
0.0
  0
LINE
  5
102
  8
1
  6
CONTINUOUS
 62
     7
 10
82.306330000000003
 20
133.13209299999991
 30
0.0
 11
82.392750000000007
 21
133.069895
 31
0.0
  0
LINE
  5
103
  8
1
  6
CONTINUOUS
 62
     7
 10
85.203572999999977
 20
130.16704899999999
 30
0.0
 11
85.082328000000004
 21
130.05591699999991
 31
0.0
  0
LINE
  5
104
  8
1
  6
CONTINUOUS
 62
     7
 10
85.311250999999999
 20
130.26283199999989
 30
0.0
 11
85.203572999999977
 21
130.16704899999999
 31
0.0
  0
LINE
  5
105
  8
1
  6
CONTINUOUS
 62
     7
 10
85.409091999999987
 20
130.34505300000001
 30
0.0
 11
85.311250999999999
 21
130.26283199999989
 31
0.0
  0
LINE
  5
106
  8
1
  6
CONTINUOUS
 62
     7
 10
85.448181000000005
 20
130.37055799999999
 30
0.0
 11
85.409091999999987
 21
130.34505300000001
 31
0.0
  0
LINE
  5
107
  8
1
  6
CONTINUOUS
 62
     7
 10
57.771907999999989
 20
133.069895
 30
0.0
 11
57.858328
 21
133.13209299999991
 31
0.0
  0
LINE
  5
108
  8
1
  6
CONTINUOUS
 62
     7
 10
57.534781999999993
 20
132.895749
 30
0.0
 11
57.771907999999989
 21
133.069895
 31
0.0
  0
LINE
  5
109
  8
1
  6
CONTINUOUS
 62
     7
 10
54.961084
 20
130.1670499999999
 30
0.0
 11
55.082329000000001
 21
130.05591799999999
 31
0.0
  0
LINE
  5
10A
  8
1
  6
CONTINUOUS
 62
     7
 10
54.853406
 20
130.262833
 30
0.0
 11
54.961084
 21
130.1670499999999
 31
0.0
  0
LINE
  5
10B
  8
1
  6
CONTINUOUS
 62
     7
 10
54.755564999999997
 20
130.345054
 30
0.0
 11
54.853406
 21
130.262833
 31
0.0
  0
LINE
  5
10C
  8
1
  6
CONTINUOUS
 62
     7
 10
54.716475000000003
 20
130.37055899999999
 30
0.0
 11
54.755564999999997
 21
130.345054
 31
0.0
  0
LINE
  5
10D
  8
1
  6
CONTINUOUS
 62
     7
 10
52.009962999999992
 20
118.7658909999999
 30
0.0
 11
51.964719999999993
 21
118.5827289999999
 31
0.0
  0
LINE
  5
10E
  8
1
  6
CONTINUOUS
 62
     7
 10
52.119857000000003
 20
118.9192479999999
 30
0.0
 11
52.009962999999992
 21
118.7658909999999
 31
0.0
  0
LINE
  5
10F
  8
1
  6
CONTINUOUS
 62
     7
 10
52.192686000000002
 20
118.9658689999999
 30
0.0
 11
52.119857000000003
 21
118.9192479999999
 31
0.0
  0
LINE
  5
110
  8
1
  6
CONTINUOUS
 62
     7
 10
62.343532000000003
 20
135.56654399999991
 30
0.0
 11
62.332329000000001
 21
135.57418100000001
 31
0.0
  0
LINE
  5
111
  8
1
  6
CONTINUOUS
 62
     7
 10
77.787370999999993
 20
135.5436379999999
 30
0.0
 11
77.738018999999994
 21
135.51001899999989
 31
0.0
  0
LINE
  5
112
  8
1
  6
CONTINUOUS
 62
     7
 10
77.821123
 20
135.56654399999991
 30
0.0
 11
77.787370999999993
 21
135.5436379999999
 31
0.0
  0
LINE
  5
113
  8
1
  6
CONTINUOUS
 62
     7
 10
77.832329000000001
 20
135.57418100000001
 30
0.0
 11
77.821123
 21
135.56654399999991
 31
0.0
  0
LINE
  5
114
  8
1
  6
CONTINUOUS
 62
     7
 10
60.913587999999997
 20
132.98277400000001
 30
0.0
 11
61.082329000000001
 21
133.0730969999999
 31
0.0
  0
LINE
  5
115
  8
1
  6
CONTINUOUS
 62
     7
 10
60.771771000000001
 20
132.90518099999991
 30
0.0
 11
60.913587999999997
 21
132.98277400000001
 31
0.0
  0
LINE
  5
116
  8
1
  6
CONTINUOUS
 62
     7
 10
60.669772000000002
 20
132.84841299999991
 30
0.0
 11
60.771771000000001
 21
132.90518099999991
 31
0.0
  0
LINE
  5
117
  8
1
  6
CONTINUOUS
 62
     7
 10
60.605314999999997
 20
132.812119
 30
0.0
 11
60.669772000000002
 21
132.84841299999991
 31
0.0
  0
LINE
  5
118
  8
1
  6
CONTINUOUS
 62
     7
 10
60.582329000000001
 20
132.7990969999999
 30
0.0
 11
60.605314999999997
 21
132.812119
 31
0.0
  0
LINE
  5
119
  8
1
  6
CONTINUOUS
 62
     7
 10
79.580559999999991
 20
132.8000999999999
 30
0.0
 11
79.582329000000001
 21
132.7990969999999
 31
0.0
  0
LINE
  5
11A
  8
1
  6
CONTINUOUS
 62
     7
 10
79.537717000000001
 20
132.824332
 30
0.0
 11
79.580559999999991
 21
132.8000999999999
 31
0.0
  0
LINE
  5
11B
  8
1
  6
CONTINUOUS
 62
     7
 10
79.428865999999999
 20
132.8852489999999
 30
0.0
 11
79.537717000000001
 21
132.824332
 31
0.0
  0
LINE
  5
11C
  8
1
  6
CONTINUOUS
 62
     7
 10
79.266641000000007
 20
132.97433000000001
 30
0.0
 11
79.428865999999999
 21
132.8852489999999
 31
0.0
  0
LINE
  5
11D
  8
1
  6
CONTINUOUS
 62
     7
 10
79.082329000000001
 20
133.0730969999999
 30
0.0
 11
79.266641000000007
 21
132.97433000000001
 31
0.0
  0
LINE
  5
11E
  8
1
  6
CONTINUOUS
 62
     7
 10
65.038298999999995
 20
136.187612
 30
0.0
 11
65.141345999999999
 21
136.20656099999999
 31
0.0
  0
LINE
  5
11F
  8
1
  6
CONTINUOUS
 62
     7
 10
64.885029000000003
 20
136.12338099999991
 30
0.0
 11
65.038298999999995
 21
136.187612
 31
0.0
  0
LINE
  5
120
  8
1
  6
CONTINUOUS
 62
     7
 10
64.669224999999983
 20
136.006561
 30
0.0
 11
64.885029000000003
 21
136.12338099999991
 31
0.0
  0
LINE
  5
121
  8
1
  6
CONTINUOUS
 62
     7
 10
64.242316999999986
 20
136.14125300000001
 30
0.0
 11
64.495431999999994
 21
136.006561
 31
0.0
  0
LINE
  5
122
  8
1
  6
CONTINUOUS
 62
     7
 10
64.117559999999997
 20
136.19023100000001
 30
0.0
 11
64.242316999999986
 21
136.14125300000001
 31
0.0
  0
LINE
  5
123
  8
1
  6
CONTINUOUS
 62
     7
 10
64.023312000000004
 20
136.20656099999999
 30
0.0
 11
64.117559999999997
 21
136.19023100000001
 31
0.0
  0
LINE
  5
124
  8
1
  6
CONTINUOUS
 62
     7
 10
76.047090999999995
 20
136.19023100000001
 30
0.0
 11
76.141345999999984
 21
136.20656099999999
 31
0.0
  0
LINE
  5
125
  8
1
  6
CONTINUOUS
 62
     7
 10
75.922340000000005
 20
136.14125300000001
 30
0.0
 11
76.047090999999995
 21
136.19023100000001
 31
0.0
  0
LINE
  5
126
  8
1
  6
CONTINUOUS
 62
     7
 10
75.669224999999997
 20
136.006561
 30
0.0
 11
75.922340000000005
 21
136.14125300000001
 31
0.0
  0
LINE
  5
127
  8
1
  6
CONTINUOUS
 62
     7
 10
75.242317
 20
136.14125300000001
 30
0.0
 11
75.495431999999994
 21
136.006561
 31
0.0
  0
LINE
  5
128
  8
1
  6
CONTINUOUS
 62
     7
 10
75.117559999999997
 20
136.19023100000001
 30
0.0
 11
75.242317
 21
136.14125300000001
 31
0.0
  0
LINE
  5
129
  8
1
  6
CONTINUOUS
 62
     7
 10
75.023312000000004
 20
136.20656099999999
 30
0.0
 11
75.117559999999997
 21
136.19023100000001
 31
0.0
  0
LINE
  5
12A
  8
1
  6
CONTINUOUS
 62
     7
 10
77.732171999999991
 20
136.55536399999991
 30
0.0
 11
77.732328999999993
 21
136.55656099999999
 31
0.0
  0
LINE
  5
12B
  8
1
  6
CONTINUOUS
 62
     7
 10
77.723055000000002
 20
136.48294699999991
 30
0.0
 11
77.732171999999991
 21
136.55536399999991
 31
0.0
  0
LINE
  5
12C
  8
1
  6
CONTINUOUS
 62
     7
 10
77.703680000000006
 20
136.30656099999999
 30
0.0
 11
77.723055000000002
 21
136.48294699999991
 31
0.0
  0
LINE
  5
12D
  8
1
  6
CONTINUOUS
 62
     7
 10
72.237889999999993
 20
141.2989649999999
 30
0.0
 11
72.170789999999997
 21
141.30656099999999
 31
0.0
  0
LINE
  5
12E
  8
1
  6
CONTINUOUS
 62
     7
 10
72.302951000000007
 20
141.27640700000001
 30
0.0
 11
72.237889999999993
 21
141.2989649999999
 31
0.0
  0
LINE
  5
12F
  8
1
  6
CONTINUOUS
 62
     7
 10
72.363996
 20
141.239574
 30
0.0
 11
72.302951000000007
 21
141.27640700000001
 31
0.0
  0
LINE
  5
130
  8
1
  6
CONTINUOUS
 62
     7
 10
72.419170999999992
 20
141.18958299999991
 30
0.0
 11
72.363996
 21
141.239574
 31
0.0
  0
LINE
  5
131
  8
1
  6
CONTINUOUS
 62
     7
 10
72.466798999999995
 20
141.12795499999999
 30
0.0
 11
72.419170999999992
 21
141.18958299999991
 31
0.0
  0
LINE
  5
132
  8
1
  6
CONTINUOUS
 62
     7
 10
72.505432999999996
 20
141.05656099999999
 30
0.0
 11
72.466798999999995
 21
141.12795499999999
 31
0.0
  0
LINE
  5
133
  8
1
  6
CONTINUOUS
 62
     7
 10
72.533899000000005
 20
140.9775709999999
 30
0.0
 11
72.505432999999996
 21
141.05656099999999
 31
0.0
  0
LINE
  5
134
  8
1
  6
CONTINUOUS
 62
     7
 10
72.551331999999988
 20
140.89338499999999
 30
0.0
 11
72.533899000000005
 21
140.9775709999999
 31
0.0
  0
LINE
  5
135
  8
1
  6
CONTINUOUS
 62
     7
 10
72.557203000000001
 20
140.80656099999999
 30
0.0
 11
72.551331999999988
 21
140.89338499999999
 31
0.0
  0
LINE
  5
136
  8
1
  6
CONTINUOUS
 62
     7
 10
83.217243999999994
 20
132.44006999999991
 30
0.0
 11
82.627793000000011
 21
132.89768299999989
 31
0.0
  0
LINE
  5
137
  8
1
  6
CONTINUOUS
 62
     7
 10
83.942538999999996
 20
131.82526399999989
 30
0.0
 11
83.217243999999994
 21
132.44006999999991
 31
0.0
  0
LINE
  5
138
  8
1
  6
CONTINUOUS
 62
     7
 10
84.695622
 20
131.11519199999989
 30
0.0
 11
83.942538999999996
 21
131.82526399999989
 31
0.0
  0
LINE
  5
139
  8
1
  6
CONTINUOUS
 62
     7
 10
85.416308999999984
 20
130.3506679999999
 30
0.0
 11
84.695622
 21
131.11519199999989
 31
0.0
  0
LINE
  5
13A
  8
1
  6
CONTINUOUS
 62
     7
 10
55.469036000000003
 20
131.11519199999989
 30
0.0
 11
54.748348999999997
 21
130.3506679999999
 31
0.0
  0
LINE
  5
13B
  8
1
  6
CONTINUOUS
 62
     7
 10
56.222118999999992
 20
131.82526399999989
 30
0.0
 11
55.469036000000003
 21
131.11519199999989
 31
0.0
  0
LINE
  5
13C
  8
1
  6
CONTINUOUS
 62
     7
 10
56.947412999999997
 20
132.44006999999991
 30
0.0
 11
56.222118999999992
 21
131.82526399999989
 31
0.0
  0
LINE
  5
13D
  8
1
  6
CONTINUOUS
 62
     7
 10
57.536864999999999
 20
132.89768299999989
 30
0.0
 11
56.947412999999997
 21
132.44006999999991
 31
0.0
  0
LINE
  5
13E
  8
1
  6
CONTINUOUS
 62
     7
 10
87.266982999999996
 20
119.056561
 30
0.0
 11
87.199937000000006
 21
119.056561
 31
0.0
  0
LINE
  5
13F
  8
1
  6
CONTINUOUS
 62
     7
 10
87.331042999999994
 20
119.056561
 30
0.0
 11
87.266982999999996
 21
119.056561
 31
0.0
  0
LINE
  5
140
  8
1
  6
CONTINUOUS
 62
     7
 10
87.442119999999989
 20
119.056561
 30
0.0
 11
87.331042999999994
 21
119.056561
 31
0.0
  0
LINE
  5
141
  8
1
  6
CONTINUOUS
 62
     7
 10
87.661912999999998
 20
119.05567599999991
 30
0.0
 11
87.442119999999989
 21
119.056561
 31
0.0
  0
LINE
  5
142
  8
1
  6
CONTINUOUS
 62
     7
 10
87.828783999999985
 20
119.030357
 30
0.0
 11
87.661912999999998
 21
119.05567599999991
 31
0.0
  0
LINE
  5
143
  8
1
  6
CONTINUOUS
 62
     7
 10
88.008581000000007
 20
118.94380099999999
 30
0.0
 11
87.828783999999985
 21
119.030357
 31
0.0
  0
LINE
  5
144
  8
1
  6
CONTINUOUS
 62
     7
 10
88.085362000000003
 20
118.87202499999999
 30
0.0
 11
88.008581000000007
 21
118.94380099999999
 31
0.0
  0
LINE
  5
145
  8
1
  6
CONTINUOUS
 62
     7
 10
88.144818000000015
 20
118.7837999999999
 30
0.0
 11
88.085362000000003
 21
118.87202499999999
 31
0.0
  0
LINE
  5
146
  8
1
  6
CONTINUOUS
 62
     7
 10
88.183495999999991
 20
118.68498599999999
 30
0.0
 11
88.144818000000015
 21
118.7837999999999
 31
0.0
  0
LINE
  5
147
  8
1
  6
CONTINUOUS
 62
     7
 10
88.199938000000003
 20
118.5827289999999
 30
0.0
 11
88.183495999999991
 21
118.68498599999999
 31
0.0
  0
LINE
  5
148
  8
1
  6
CONTINUOUS
 62
     7
 10
52.238326999999998
 20
119.002022
 30
0.0
 11
52.188949999999991
 21
118.971706
 31
0.0
  0
LINE
  5
149
  8
1
  6
CONTINUOUS
 62
     7
 10
52.306905
 20
119.029113
 30
0.0
 11
52.238326999999998
 21
119.002022
 31
0.0
  0
LINE
  5
14A
  8
1
  6
CONTINUOUS
 62
     7
 10
52.43504699999999
 20
119.0516539999999
 30
0.0
 11
52.306905
 21
119.029113
 31
0.0
  0
LINE
  5
14B
  8
1
  6
CONTINUOUS
 62
     7
 10
52.669775000000001
 20
119.0559929999999
 30
0.0
 11
52.43504699999999
 21
119.0516539999999
 31
0.0
  0
LINE
  5
14C
  8
1
  6
CONTINUOUS
 62
     7
 10
86.832329000000001
 20
119.056561
 30
0.0
 11
86.783360999999999
 21
119.6162689999999
 31
0.0
  0
LINE
  5
14D
  8
1
  6
CONTINUOUS
 62
     7
 10
83.381297000000004
 20
119.6162689999999
 30
0.0
 11
83.332329000000001
 21
119.056561
 31
0.0
  0
ARC
  5
14E
  8
1
  6
CONTINUOUS
 62
     7
 10
86.135834000000017
 20
119.5596169999999
 30
0.0
 40
0.65
 50
5.0
 51
74.119150000000005
  0
ARC
  5
14F
  8
1
  6
CONTINUOUS
 62
     7
 10
84.028822999999988
 20
119.5596169999999
 30
0.0
 40
0.65
 50
105.88085
 51
175.0
  0
LINE
  5
150
  8
1
  6
CONTINUOUS
 62
     7
 10
56.832329000000001
 20
119.056561
 30
0.0
 11
56.783360999999999
 21
119.6162689999999
 31
0.0
  0
LINE
  5
151
  8
1
  6
CONTINUOUS
 62
     7
 10
53.381296999999989
 20
119.6162689999999
 30
0.0
 11
53.332329000000001
 21
119.056561
 31
0.0
  0
ARC
  5
152
  8
1
  6
CONTINUOUS
 62
     7
 10
56.135833999999988
 20
119.5596169999999
 30
0.0
 40
0.65
 50
5.0
 51
74.119150000000005
  0
ARC
  5
153
  8
1
  6
CONTINUOUS
 62
     7
 10
54.028822999999988
 20
119.5596169999999
 30
0.0
 40
0.65
 50
105.88085
 51
175.0
  0
ARC
  5
154
  8
1
  6
CONTINUOUS
 62
     7
 10
66.832329000000001
 20
137.05656099999999
 30
0.0
 40
0.25
 50
90.0
 51
180.0
  0
LINE
  5
155
  8
1
  6
CONTINUOUS
 62
     7
 10
66.582329000000001
 20
137.05656099999999
 30
0.0
 11
66.582329000000001
 21
136.30656099999999
 31
0.0
  0
ARC
  5
156
  8
1
  6
CONTINUOUS
 62
     7
 10
68.198444999999992
 20
140.80656099999999
 30
0.0
 40
0.5
 50
90.0
 51
180.0
  0
LINE
  5
157
  8
1
  6
CONTINUOUS
 62
     7
 10
67.698444999999992
 20
140.80656099999999
 30
0.0
 11
67.698444999999992
 21
137.30656099999999
 31
0.0
  0
ARC
  5
158
  8
1
  6
CONTINUOUS
 62
     7
 10
77.482329000000007
 20
137.05656099999999
 30
0.0
 40
0.25
 50
0.0
 51
90.0
  0
LINE
  5
159
  8
1
  6
CONTINUOUS
 62
     7
 10
77.732328999999993
 20
136.55656099999999
 30
0.0
 11
77.732328999999993
 21
137.05656099999999
 31
0.0
  0
ARC
  5
15A
  8
1
  6
CONTINUOUS
 62
     7
 10
74.134834999999995
 20
140.80656099999999
 30
0.0
 40
0.5
 50
0.0
 51
90.0
  0
LINE
  5
15B
  8
1
  6
CONTINUOUS
 62
     7
 10
74.634834999999995
 20
137.30656099999999
 30
0.0
 11
74.634834999999995
 21
140.80656099999999
 31
0.0
  0
ARC
  5
15C
  8
1
  6
CONTINUOUS
 62
     7
 10
59.547168999999997
 20
108.336608
 30
0.0
 40
0.5
 50
5.0
 51
60.689990000000002
  0
ARC
  5
15D
  8
1
  6
CONTINUOUS
 62
     7
 10
63.617488000000002
 20
108.336608
 30
0.0
 40
0.5
 50
119.292113
 51
175.0
  0
LINE
  5
15E
  8
1
  6
CONTINUOUS
 62
     7
 10
76.332329000000001
 20
136.20656099999999
 30
0.0
 11
76.332329000000001
 21
136.70656099999999
 31
0.0
  0
LINE
  5
15F
  8
1
  6
CONTINUOUS
 62
     7
 10
74.832329000000001
 20
136.70656099999999
 30
0.0
 11
74.832329000000001
 21
136.20656099999999
 31
0.0
  0
LINE
  5
160
  8
1
  6
CONTINUOUS
 62
     7
 10
65.332329000000001
 20
136.20656099999999
 30
0.0
 11
65.332329000000001
 21
136.70656099999999
 31
0.0
  0
LINE
  5
161
  8
1
  6
CONTINUOUS
 62
     7
 10
63.832329000000001
 20
136.70656099999999
 30
0.0
 11
63.832329000000001
 21
136.20656099999999
 31
0.0
  0
LINE
  5
162
  8
1
  6
CONTINUOUS
 62
     7
 10
76.332329000000001
 20
136.70656099999999
 30
0.0
 11
76.232329000000007
 21
136.80656099999999
 31
0.0
  0
LINE
  5
163
  8
1
  6
CONTINUOUS
 62
     7
 10
74.93232900000001
 20
136.80656099999999
 30
0.0
 11
74.832329000000001
 21
136.70656099999999
 31
0.0
  0
LINE
  5
164
  8
1
  6
CONTINUOUS
 62
     7
 10
65.332329000000001
 20
136.70656099999999
 30
0.0
 11
65.232328999999993
 21
136.80656099999999
 31
0.0
  0
LINE
  5
165
  8
1
  6
CONTINUOUS
 62
     7
 10
63.932329000000003
 20
136.80656099999999
 30
0.0
 11
63.832329000000001
 21
136.70656099999999
 31
0.0
  0
LINE
  5
166
  8
1
  6
CONTINUOUS
 62
     7
 10
84.832329000000001
 20
120.342651
 30
0.0
 11
83.982329000000007
 21
120.212878
 31
0.0
  0
LINE
  5
167
  8
1
  6
CONTINUOUS
 62
     7
 10
84.832329000000001
 20
120.212878
 30
0.0
 11
84.832329000000001
 21
120.342651
 31
0.0
  0
LINE
  5
168
  8
1
  6
CONTINUOUS
 62
     7
 10
85.332328999999987
 20
120.212878
 30
0.0
 11
84.832329000000001
 21
120.212878
 31
0.0
  0
LINE
  5
169
  8
1
  6
CONTINUOUS
 62
     7
 10
85.332328999999987
 20
120.342651
 30
0.0
 11
85.332328999999987
 21
120.212878
 31
0.0
  0
LINE
  5
16A
  8
1
  6
CONTINUOUS
 62
     7
 10
86.182328999999996
 20
120.212878
 30
0.0
 11
85.332328999999987
 21
120.342651
 31
0.0
  0
LINE
  5
16B
  8
1
  6
CONTINUOUS
 62
     7
 10
86.182328999999996
 20
120.220046
 30
0.0
 11
86.182328999999996
 21
120.212878
 31
0.0
  0
LINE
  5
16C
  8
1
  6
CONTINUOUS
 62
     7
 10
83.982329000000007
 20
120.212878
 30
0.0
 11
83.982329000000007
 21
120.220046
 31
0.0
  0
LINE
  5
16D
  8
1
  6
CONTINUOUS
 62
     7
 10
54.832329000000001
 20
120.342651
 30
0.0
 11
53.982329
 21
120.212878
 31
0.0
  0
LINE
  5
16E
  8
1
  6
CONTINUOUS
 62
     7
 10
56.182329000000003
 20
120.212878
 30
0.0
 11
55.332329000000001
 21
120.342651
 31
0.0
  0
LINE
  5
16F
  8
1
  6
CONTINUOUS
 62
     7
 10
56.182329000000003
 20
120.220046
 30
0.0
 11
56.182329000000003
 21
120.212878
 31
0.0
  0
LINE
  5
170
  8
1
  6
CONTINUOUS
 62
     7
 10
53.982329
 20
120.212878
 30
0.0
 11
53.982329
 21
120.220046
 31
0.0
  0
LINE
  5
171
  8
1
  6
CONTINUOUS
 62
     7
 10
72.493275999999994
 20
137.30656099999999
 30
0.0
 11
66.832329000000001
 21
137.30656099999999
 31
0.0
  0
LINE
  5
172
  8
1
  6
CONTINUOUS
 62
     7
 10
66.582329000000001
 20
136.30656099999999
 30
0.0
 11
68.332329000000001
 21
136.30656099999999
 31
0.0
  0
LINE
  5
173
  8
1
  6
CONTINUOUS
 62
     7
 10
69.068671999999992
 20
136.30656099999999
 30
0.0
 11
71.095985999999996
 21
136.30656099999999
 31
0.0
  0
LINE
  5
174
  8
1
  6
CONTINUOUS
 62
     7
 10
71.832329000000001
 20
136.30656099999999
 30
0.0
 11
72.678732999999994
 21
136.30656099999999
 31
0.0
  0
LINE
  5
175
  8
1
  6
CONTINUOUS
 62
     7
 10
69.905552
 20
141.30656099999999
 30
0.0
 11
68.198444999999992
 21
141.30656099999999
 31
0.0
  0
LINE
  5
176
  8
1
  6
CONTINUOUS
 62
     7
 10
72.493275999999994
 20
137.30656099999999
 30
0.0
 11
73.235105000000004
 21
137.30656099999999
 31
0.0
  0
LINE
  5
177
  8
1
  6
CONTINUOUS
 62
     7
 10
73.235105000000004
 20
136.30656099999999
 30
0.0
 11
72.678732999999994
 21
136.30656099999999
 31
0.0
  0
LINE
  5
178
  8
1
  6
CONTINUOUS
 62
     7
 10
76.848974999999996
 20
137.30656099999999
 30
0.0
 11
77.339311999999993
 21
137.30656099999999
 31
0.0
  0
LINE
  5
179
  8
1
  6
CONTINUOUS
 62
     7
 10
76.848974999999996
 20
136.30656099999999
 30
0.0
 11
77.584479999999999
 21
136.30656099999999
 31
0.0
  0
LINE
  5
17A
  8
1
  6
CONTINUOUS
 62
     7
 10
76.848974999999996
 20
137.30656099999999
 30
0.0
 11
73.235105000000004
 21
137.30656099999999
 31
0.0
  0
LINE
  5
17B
  8
1
  6
CONTINUOUS
 62
     7
 10
73.235105000000004
 20
136.30656099999999
 30
0.0
 11
74.832329000000001
 21
136.30656099999999
 31
0.0
  0
LINE
  5
17C
  8
1
  6
CONTINUOUS
 62
     7
 10
76.332329000000001
 20
136.30656099999999
 30
0.0
 11
76.848974999999996
 21
136.30656099999999
 31
0.0
  0
LINE
  5
17D
  8
1
  6
CONTINUOUS
 62
     7
 10
72.170789999999997
 20
141.30656099999999
 30
0.0
 11
69.905552
 21
141.30656099999999
 31
0.0
  0
LINE
  5
17E
  8
1
  6
CONTINUOUS
 62
     7
 10
72.557203000000001
 20
137.30656099999999
 30
0.0
 11
72.557203000000001
 21
140.80656099999999
 31
0.0
  0
LINE
  5
17F
  8
1
  6
CONTINUOUS
 62
     7
 10
77.339311999999993
 20
137.30656099999999
 30
0.0
 11
77.482329000000007
 21
137.30656099999999
 31
0.0
  0
LINE
  5
180
  8
1
  6
CONTINUOUS
 62
     7
 10
77.584479999999999
 20
136.30656099999999
 30
0.0
 11
77.703680000000006
 21
136.30656099999999
 31
0.0
  0
LINE
  5
181
  8
1
  6
CONTINUOUS
 62
     7
 10
74.091161
 20
141.30656099999999
 30
0.0
 11
72.170789999999997
 21
141.30656099999999
 31
0.0
  0
LINE
  5
182
  8
1
  6
CONTINUOUS
 62
     7
 10
74.091161
 20
141.30656099999999
 30
0.0
 11
74.134834999999995
 21
141.30656099999999
 31
0.0
  0
LINE
  5
183
  8
1
  6
CONTINUOUS
 62
     7
 10
60.082329000000001
 20
107.95656099999999
 30
0.0
 11
60.045266000000012
 21
108.38018599999999
 31
0.0
  0
LINE
  5
184
  8
1
  6
CONTINUOUS
 62
     7
 10
59.787863000000002
 20
108.7571199999999
 30
0.0
 11
59.648782999999987
 21
108.8166149999999
 31
0.0
  0
LINE
  5
185
  8
1
  6
CONTINUOUS
 62
     7
 10
59.79193699999999
 20
108.7725999999999
 30
0.0
 11
59.787863000000002
 21
108.7571199999999
 31
0.0
  0
LINE
  5
186
  8
1
  6
CONTINUOUS
 62
     7
 10
59.648782999999987
 20
108.8166149999999
 30
0.0
 11
59.273689000000012
 21
108.8833629999999
 31
0.0
  0
LINE
  5
187
  8
1
  6
CONTINUOUS
 62
     7
 10
63.119391
 20
108.38018599999999
 30
0.0
 11
63.082329000000001
 21
107.95656099999999
 31
0.0
  0
LINE
  5
188
  8
1
  6
CONTINUOUS
 62
     7
 10
63.37679399999999
 20
108.7571199999999
 30
0.0
 11
63.372856999999989
 21
108.772676
 31
0.0
  0
LINE
  5
189
  8
1
  6
CONTINUOUS
 62
     7
 10
63.515875000000001
 20
108.8166149999999
 30
0.0
 11
63.37679399999999
 21
108.7571199999999
 31
0.0
  0
LINE
  5
18A
  8
1
  6
CONTINUOUS
 62
     7
 10
63.886893000000008
 20
108.882637
 30
0.0
 11
63.515875000000001
 21
108.8166149999999
 31
0.0
  0
LINE
  5
18B
  8
1
  6
CONTINUOUS
 62
     7
 10
76.141345999999984
 20
136.20656099999999
 30
0.0
 11
77.332329000000001
 21
136.20656099999999
 31
0.0
  0
LINE
  5
18C
  8
1
  6
CONTINUOUS
 62
     7
 10
71.832329000000001
 20
136.20656099999999
 30
0.0
 11
75.023312000000004
 21
136.20656099999999
 31
0.0
  0
LINE
  5
18D
  8
1
  6
CONTINUOUS
 62
     7
 10
75.495431999999994
 20
136.006561
 30
0.0
 11
75.669224999999997
 21
136.006561
 31
0.0
  0
LINE
  5
18E
  8
1
  6
CONTINUOUS
 62
     7
 10
76.332329000000001
 20
136.70656099999999
 30
0.0
 11
74.832329000000001
 21
136.70656099999999
 31
0.0
  0
LINE
  5
18F
  8
1
  6
CONTINUOUS
 62
     7
 10
65.141345999999999
 20
136.20656099999999
 30
0.0
 11
68.332329000000001
 21
136.20656099999999
 31
0.0
  0
LINE
  5
190
  8
1
  6
CONTINUOUS
 62
     7
 10
62.832329000000001
 20
136.20656099999999
 30
0.0
 11
64.023312000000004
 21
136.20656099999999
 31
0.0
  0
LINE
  5
191
  8
1
  6
CONTINUOUS
 62
     7
 10
64.495431999999994
 20
136.006561
 30
0.0
 11
64.669224999999983
 21
136.006561
 31
0.0
  0
LINE
  5
192
  8
1
  6
CONTINUOUS
 62
     7
 10
65.332329000000001
 20
136.70656099999999
 30
0.0
 11
63.832329000000001
 21
136.70656099999999
 31
0.0
  0
ARC
  5
193
  8
1
  6
CONTINUOUS
 62
     7
 10
70.082329000000001
 20
116.056561
 30
0.0
 40
19.25
 50
62.125756999999993
 51
84.784091000000004
  0
LINE
  5
194
  8
1
  6
CONTINUOUS
 62
     7
 10
71.832329000000001
 20
135.22685100000001
 30
0.0
 11
71.832329000000001
 21
135.95656099999999
 31
0.0
  0
LINE
  5
195
  8
1
  6
CONTINUOUS
 62
     7
 10
68.332329000000001
 20
135.95656099999999
 30
0.0
 11
68.332329000000001
 21
135.22685100000001
 31
0.0
  0
ARC
  5
196
  8
1
  6
CONTINUOUS
 62
     7
 10
70.082329000000001
 20
116.056561
 30
0.0
 40
19.25
 50
95.215908999999996
 51
117.87424300000001
  0
LINE
  5
197
  8
1
  6
CONTINUOUS
 62
     7
 10
77.832329000000001
 20
135.95656099999999
 30
0.0
 11
77.832329000000001
 21
135.57418100000001
 31
0.0
  0
LINE
  5
198
  8
1
  6
CONTINUOUS
 62
     7
 10
62.332329000000001
 20
135.95656099999999
 30
0.0
 11
62.332329000000001
 21
135.57418100000001
 31
0.0
  0
ARC
  5
199
  8
1
  6
CONTINUOUS
 62
     7
 10
70.082329000000001
 20
116.056561
 30
0.0
 40
21.0
 50
63.958350000000003
 51
68.343106999999989
  0
ARC
  5
19A
  8
1
  6
CONTINUOUS
 62
     7
 10
70.082329000000001
 20
116.056561
 30
0.0
 40
21.0
 50
111.6568929999999
 51
116.04165
  0
LINE
  5
19B
  8
1
  6
CONTINUOUS
 62
     7
 10
77.332329000000001
 20
136.20656099999999
 30
0.0
 11
77.582329000000001
 21
136.20656099999999
 31
0.0
  0
ARC
  5
19C
  8
1
  6
CONTINUOUS
 62
     7
 10
77.582329000000001
 20
135.95656099999999
 30
0.0
 40
0.25
 50
0.0
 51
90.0
  0
ARC
  5
19D
  8
1
  6
CONTINUOUS
 62
     7
 10
62.582329000000001
 20
135.95656099999999
 30
0.0
 40
0.25
 50
90.0
 51
180.0
  0
LINE
  5
19E
  8
1
  6
CONTINUOUS
 62
     7
 10
62.582329000000001
 20
136.20656099999999
 30
0.0
 11
62.832329000000001
 21
136.20656099999999
 31
0.0
  0
LINE
  5
19F
  8
1
  6
CONTINUOUS
 62
     7
 10
76.232329000000007
 20
136.80656099999999
 30
0.0
 11
74.93232900000001
 21
136.80656099999999
 31
0.0
  0
LINE
  5
1A0
  8
1
  6
CONTINUOUS
 62
     7
 10
65.232328999999993
 20
136.80656099999999
 30
0.0
 11
63.932329000000003
 21
136.80656099999999
 31
0.0
  0
LINE
  5
1A1
  8
1
  6
CONTINUOUS
 62
     7
 10
78.484331000000012
 20
133.37616999999989
 30
0.0
 11
78.484110000000001
 21
133.2372389999999
 31
0.0
  0
LINE
  5
1A2
  8
1
  6
CONTINUOUS
 62
     7
 10
61.679976000000003
 20
133.23696000000001
 30
0.0
 11
61.679683999999988
 21
133.37585799999999
 31
0.0
  0
ARC
  5
1A3
  8
1
  6
CONTINUOUS
 62
     7
 10
58.149374999999999
 20
132.72553300000001
 30
0.0
 40
0.5
 50
125.598049
 51
177.0
  0
ARC
  5
1A4
  8
1
  6
CONTINUOUS
 62
     7
 10
82.015281999999999
 20
132.72553300000001
 30
0.0
 40
0.5
 50
3.0
 51
54.401950999999997
  0
LINE
  5
1A5
  8
1
  6
CONTINUOUS
 62
     7
 10
51.964719999999993
 20
118.5827289999999
 30
0.0
 11
51.832329000000001
 21
116.056561
 31
0.0
  0
LINE
  5
1A6
  8
1
  6
CONTINUOUS
 62
     7
 10
51.832329000000001
 20
116.056561
 30
0.0
 11
52.833700999999991
 21
116.056561
 31
0.0
  0
LINE
  5
1A7
  8
1
  6
CONTINUOUS
 62
     7
 10
60.532329000000011
 20
120.556561
 30
0.0
 11
60.532329000000011
 21
132.77062699999991
 31
0.0
  0
ARC
  5
1A8
  8
1
  6
CONTINUOUS
 62
     7
 10
70.082329000000001
 20
120.556561
 30
0.0
 40
9.5500000000000007
 50
180.0
 51
208.11249100000001
  0
LINE
  5
1A9
  8
1
  6
CONTINUOUS
 62
     7
 10
52.833700999999991
 20
116.056561
 30
0.0
 11
61.658997999999997
 21
116.056561
 31
0.0
  0
ARC
  5
1AA
  8
1
  6
CONTINUOUS
 62
     7
 10
70.082329000000001
 20
116.056561
 30
0.0
 40
19.25
 50
119.5713149999999
 51
119.7425689999999
  0
LINE
  5
1AB
  8
1
  6
CONTINUOUS
 62
     7
 10
56.932329000000003
 20
119.056561
 30
0.0
 11
52.96472099999999
 21
119.056561
 31
0.0
  0
LINE
  5
1AC
  8
1
  6
CONTINUOUS
 62
     7
 10
57.40681099999999
 20
118.556561
 30
0.0
 11
56.932329000000003
 21
119.056561
 31
0.0
  0
LINE
  5
1AD
  8
1
  6
CONTINUOUS
 62
     7
 10
88.332329000000001
 20
116.056561
 30
0.0
 11
88.199938000000003
 21
118.5827289999999
 31
0.0
  0
LINE
  5
1AE
  8
1
  6
CONTINUOUS
 62
     7
 10
87.330956
 20
116.056561
 30
0.0
 11
88.332329000000001
 21
116.056561
 31
0.0
  0
LINE
  5
1AF
  8
1
  6
CONTINUOUS
 62
     7
 10
78.505658999999994
 20
116.056561
 30
0.0
 11
87.330956
 21
116.056561
 31
0.0
  0
ARC
  5
1B0
  8
1
  6
CONTINUOUS
 62
     7
 10
70.082329000000001
 20
120.556561
 30
0.0
 40
9.5500000000000007
 50
331.88750900000002
 51
0.0
  0
LINE
  5
1B1
  8
1
  6
CONTINUOUS
 62
     7
 10
79.632328999999999
 20
132.77062699999991
 30
0.0
 11
79.632328999999999
 21
120.556561
 31
0.0
  0
ARC
  5
1B2
  8
1
  6
CONTINUOUS
 62
     7
 10
70.082329000000001
 20
116.056561
 30
0.0
 40
19.25
 50
60.25743099999999
 51
60.428685000000002
  0
LINE
  5
1B3
  8
1
  6
CONTINUOUS
 62
     7
 10
87.199937000000006
 20
119.056561
 30
0.0
 11
83.232328999999993
 21
119.056561
 31
0.0
  0
LINE
  5
1B4
  8
1
  6
CONTINUOUS
 62
     7
 10
52.96472099999999
 20
119.056561
 30
0.0
 11
52.668232999999987
 21
119.056561
 31
0.0
  0
LINE
  5
1B5
  8
1
  6
CONTINUOUS
 62
     7
 10
57.650061000000001
 20
132.75170099999991
 30
0.0
 11
56.932329000000003
 21
119.056561
 31
0.0
  0
LINE
  5
1B6
  8
1
  6
CONTINUOUS
 62
     7
 10
83.232328999999993
 20
119.056561
 30
0.0
 11
82.514596999999995
 21
132.75170099999991
 31
0.0
  0
ARC
  5
1B7
  8
1
  6
CONTINUOUS
 62
     7
 10
70.082329000000001
 20
116.056561
 30
0.0
 40
21.0
 50
54.401950999999997
 51
63.958350000000003
  0
ARC
  5
1B8
  8
1
  6
CONTINUOUS
 62
     7
 10
70.082329000000001
 20
116.056561
 30
0.0
 40
21.0
 50
116.04165
 51
125.598049
  0
LINE
  5
1B9
  8
1
  6
CONTINUOUS
 62
     7
 10
79.160324000000003
 20
117.756561
 30
0.0
 11
79.212634999999992
 21
117.756561
 31
0.0
  0
LINE
  5
1BA
  8
1
  6
CONTINUOUS
 62
     7
 10
61.004332999999988
 20
117.756561
 30
0.0
 11
60.952021999999999
 21
117.756561
 31
0.0
  0
LINE
  5
1BB
  8
1
  6
CONTINUOUS
 62
     7
 10
87.750416999999999
 20
127.16010300000001
 30
0.0
 11
88.199938000000003
 21
118.5827289999999
 31
0.0
  0
LINE
  5
1BC
  8
1
  6
CONTINUOUS
 62
     7
 10
52.41424099999999
 20
127.16010300000001
 30
0.0
 11
51.964719999999993
 21
118.5827289999999
 31
0.0
  0
ARC
  5
1BD
  8
1
  6
CONTINUOUS
 62
     7
 10
74.562117999999998
 20
111.8966539999999
 30
0.0
 40
0.25
 50
55.0
 51
117.35262399999991
  0
LINE
  5
1BE
  8
1
  6
CONTINUOUS
 62
     7
 10
71.832329000000001
 20
136.05656099999999
 30
0.0
 11
71.832329000000001
 21
135.10132699999991
 31
0.0
  0
ARC
  5
1BF
  8
1
  6
CONTINUOUS
 62
     7
 10
70.082329000000001
 20
116.056561
 30
0.0
 40
19.125
 50
61.927513000000012
 51
84.749904999999998
  0
LINE
  5
1C0
  8
1
  6
CONTINUOUS
 62
     7
 10
77.682328999999996
 20
115.10199399999991
 30
0.0
 11
77.682328999999996
 21
112.47526000000001
 31
0.0
  0
ARC
  5
1C1
  8
1
  6
CONTINUOUS
 62
     7
 10
77.43232900000001
 20
112.47526000000001
 30
0.0
 40
0.25
 50
282.37362499999989
 51
0.0
  0
ARC
  5
1C2
  8
1
  6
CONTINUOUS
 62
     7
 10
78.18232900000001
 20
109.056561
 30
0.0
 40
3.25
 50
102.373625
 51
132.626375
  0
ARC
  5
1C3
  8
1
  6
CONTINUOUS
 62
     7
 10
75.812077000000002
 20
111.63181
 30
0.0
 40
0.25
 50
235.0
 51
312.626375
  0
LINE
  5
1C4
  8
1
  6
CONTINUOUS
 62
     7
 10
75.668683000000001
 20
111.42702199999989
 30
0.0
 11
74.528416000000007
 21
112.22544599999991
 31
0.0
  0
ARC
  5
1C5
  8
1
  6
CONTINUOUS
 62
     7
 10
70.082329000000001
 20
116.056561
 30
0.0
 40
19.125
 50
95.250095000000016
 51
118.072487
  0
LINE
  5
1C6
  8
1
  6
CONTINUOUS
 62
     7
 10
68.332329000000001
 20
135.10132699999991
 30
0.0
 11
68.332329000000001
 21
136.05656099999999
 31
0.0
  0
ARC
  5
1C7
  8
1
  6
CONTINUOUS
 62
     7
 10
70.082329000000001
 20
120.556561
 30
0.0
 40
9.5
 50
180.0
 51
297.35262399999988
  0
LINE
  5
1C8
  8
1
  6
CONTINUOUS
 62
     7
 10
60.582329000000001
 20
132.655224
 30
0.0
 11
60.582329000000001
 21
120.556561
 31
0.0
  0
LINE
  5
1C9
  8
1
  6
CONTINUOUS
 62
     7
 10
79.582329000000001
 20
120.556561
 30
0.0
 11
79.582329000000001
 21
132.655224
 31
0.0
  0
ARC
  5
1CA
  8
1
  6
CONTINUOUS
 62
     7
 10
70.082329000000001
 20
120.556561
 30
0.0
 40
9.5
 50
323.62263899999999
 51
0.0
  0
LINE
  5
1CB
  8
1
  6
CONTINUOUS
 62
     7
 10
68.332329000000001
 20
136.30656099999999
 30
0.0
 11
68.332329000000001
 21
136.05656099999999
 31
0.0
  0
LINE
  5
1CC
  8
1
  6
CONTINUOUS
 62
     7
 10
71.832329000000001
 20
136.30656099999999
 30
0.0
 11
71.095985999999996
 21
136.30656099999999
 31
0.0
  0
LINE
  5
1CD
  8
1
  6
CONTINUOUS
 62
     7
 10
69.068671999999992
 20
136.30656099999999
 30
0.0
 11
68.332329000000001
 21
136.30656099999999
 31
0.0
  0
LINE
  5
1CE
  8
1
  6
CONTINUOUS
 62
     7
 10
71.832329000000001
 20
136.05656099999999
 30
0.0
 11
71.832329000000001
 21
136.30656099999999
 31
0.0
  0
LINE
  5
1CF
  8
1
  6
CONTINUOUS
 62
     7
 10
60.301459999999999
 20
110.556561
 30
0.0
 11
62.863197999999997
 21
110.556561
 31
0.0
  0
LINE
  5
1D0
  8
1
  6
CONTINUOUS
 62
     7
 10
80.396505999999988
 20
109.5188959999999
 30
0.0
 11
80.217527000000004
 21
107.4731569999999
 31
0.0
  0
LINE
  5
1D1
  8
1
  6
CONTINUOUS
 62
     7
 10
79.704031999999984
 20
107.518081
 30
0.0
 11
80.217527000000004
 21
107.47315500000001
 31
0.0
  0
LINE
  5
1D2
  8
1
  6
CONTINUOUS
 62
     7
 10
79.883010999999996
 20
109.5638209999999
 30
0.0
 11
79.704031999999984
 21
107.51808200000001
 31
0.0
  0
LINE
  5
1D3
  8
1
  6
CONTINUOUS
 62
     7
 10
76.416589000000002
 20
107.805696
 30
0.0
 11
76.595568
 21
109.851434
 31
0.0
  0
LINE
  5
1D4
  8
1
  6
CONTINUOUS
 62
     7
 10
76.683920000000001
 20
110.021157
 30
0.0
 11
78.009100000000004
 21
111.13311399999991
 31
0.0
  0
LINE
  5
1D5
  8
1
  6
CONTINUOUS
 62
     7
 10
78.713515999999998
 20
111.07148599999999
 30
0.0
 11
79.825473000000002
 21
109.746306
 31
0.0
  0
ARC
  5
1D6
  8
1
  6
CONTINUOUS
 62
     7
 10
79.454888999999994
 20
107.54011199999999
 30
0.0
 40
0.250234
 50
265.02626099999992
 51
354.94652500000001
  0
LINE
  5
1D7
  8
1
  6
CONTINUOUS
 62
     7
 10
79.433194
 20
107.29082099999999
 30
0.0
 11
76.643849000000003
 21
107.534857
 31
0.0
  0
LINE
  5
1D8
  8
1
  6
CONTINUOUS
 62
     7
 10
77.730316000000002
 20
108.1926689999999
 30
0.0
 11
77.830545000000001
 21
109.33829299999989
 31
0.0
  0
ARC
  5
1D9
  8
1
  6
CONTINUOUS
 62
     7
 10
77.829934999999992
 20
108.183954
 30
0.0
 40
0.1
 50
175.0
 51
265.0
  0
LINE
  5
1DA
  8
1
  6
CONTINUOUS
 62
     7
 10
78.369127000000006
 20
108.036399
 30
0.0
 11
77.821219999999997
 21
108.084334
 31
0.0
  0
ARC
  5
1DB
  8
1
  6
CONTINUOUS
 62
     7
 10
78.377842000000001
 20
108.13601799999989
 30
0.0
 40
0.1
 50
265.0
 51
355.0
  0
LINE
  5
1DC
  8
1
  6
CONTINUOUS
 62
     7
 10
78.577691000000002
 20
109.272926
 30
0.0
 11
78.477462000000003
 21
108.127302
 31
0.0
  0
LINE
  5
1DD
  8
1
  6
CONTINUOUS
 62
     7
 10
78.959810000000004
 20
109.23949499999991
 30
0.0
 11
78.577691000000002
 21
109.272926
 31
0.0
  0
ARC
  5
1DE
  8
1
  6
CONTINUOUS
 62
     7
 10
78.968525
 20
109.33911499999989
 30
0.0
 40
0.1
 50
265.0
 51
40.0
  0
LINE
  5
1DF
  8
1
  6
CONTINUOUS
 62
     7
 10
78.355552000000003
 20
110.2252
 30
0.0
 11
79.04513
 21
109.40339399999991
 31
0.0
  0
ARC
  5
1E0
  8
1
  6
CONTINUOUS
 62
     7
 10
78.278948
 20
110.160921
 30
0.0
 40
0.1
 50
40.0
 51
130.0
  0
LINE
  5
1E1
  8
1
  6
CONTINUOUS
 62
     7
 10
77.392863000000006
 20
109.54794800000001
 30
0.0
 11
78.214669000000001
 21
110.237526
 31
0.0
  0
ARC
  5
1E2
  8
1
  6
CONTINUOUS
 62
     7
 10
77.457140999999993
 20
109.4713439999999
 30
0.0
 40
0.1
 50
130.0
 51
265.0
  0
LINE
  5
1E3
  8
1
  6
CONTINUOUS
 62
     7
 10
77.830545000000001
 20
109.33829299999989
 30
0.0
 11
77.448425999999998
 21
109.3717239999999
 31
0.0
  0
LINE
  5
1E4
  8
1
  6
CONTINUOUS
 62
     7
 10
76.352591000000004
 20
110.41601899999991
 30
0.0
 11
77.677770999999993
 21
111.52797700000001
 31
0.0
  0
LINE
  5
1E5
  8
1
  6
CONTINUOUS
 62
     7
 10
79.108378000000002
 20
111.4028149999999
 30
0.0
 11
80.220336000000003
 21
110.077635
 31
0.0
  0
LINE
  5
1E6
  8
1
  6
CONTINUOUS
 62
     7
 10
75.903093999999996
 20
107.85061999999991
 30
0.0
 11
76.082072999999994
 21
109.896359
 31
0.0
  0
LINE
  5
1E7
  8
1
  6
CONTINUOUS
 62
     7
 10
79.388268999999994
 20
106.7773269999999
 30
0.0
 11
76.598923999999997
 21
107.02136299999999
 31
0.0
  0
LINE
  5
1E8
  8
1
  6
CONTINUOUS
 62
     7
 10
80.323402000000002
 20
110.1641179999999
 30
0.0
 11
79.211444999999998
 21
111.48929800000001
 31
0.0
  0
LINE
  5
1E9
  8
1
  6
CONTINUOUS
 62
     7
 10
77.591288000000006
 20
111.63104299999991
 30
0.0
 11
76.266108000000003
 21
110.519086
 31
0.0
  0
LINE
  5
1EA
  8
1
  6
CONTINUOUS
 62
     7
 10
75.948042000000001
 20
109.908086
 30
0.0
 11
75.769063000000003
 21
107.8623469999999
 31
0.0
  0
LINE
  5
1EB
  8
1
  6
CONTINUOUS
 62
     7
 10
76.587198000000001
 20
106.887331
 30
0.0
 11
79.376542999999998
 21
106.64329499999999
 31
0.0
  0
LINE
  5
1EC
  8
1
  6
CONTINUOUS
 62
     7
 10
80.351558999999995
 20
107.46142999999999
 30
0.0
 11
80.530538000000007
 21
109.50716899999991
 31
0.0
  0
ARC
  5
1ED
  8
1
  6
CONTINUOUS
 62
     7
 10
78.18232900000001
 20
109.056561
 30
0.0
 40
3.75
 50
137.3377439999999
 51
175.0
  0
ARC
  5
1EE
  8
1
  6
CONTINUOUS
 62
     7
 10
78.18232900000001
 20
109.056561
 30
0.0
 40
3.75
 50
175.0
 51
97.662255999999999
  0
ARC
  5
1EF
  8
1
  6
CONTINUOUS
 62
     7
 10
78.18232900000001
 20
109.056561
 30
0.0
 40
4.0
 50
175.0
 51
97.180756000000002
  0
ARC
  5
1F0
  8
1
  6
CONTINUOUS
 62
     7
 10
78.18232900000001
 20
109.056561
 30
0.0
 40
4.0
 50
137.819244
 51
175.0
  0
CIRCLE
  5
1F1
  8
1
  6
CONTINUOUS
 62
     7
 10
61.582329000000001
 20
108.556561
 30
0.0
 40
2.375
  0
CIRCLE
  5
1F2
  8
1
  6
CONTINUOUS
 62
     7
 10
61.582329000000001
 20
108.556561
 30
0.0
 40
2.75
  0
LINE
  5
1F3
  8
1
  6
CONTINUOUS
 62
     7
 10
78.957847999999998
 20
117.169061
 30
0.0
 11
79.011346000000003
 21
117.169061
 31
0.0
  0
LINE
  5
1F4
  8
1
  6
CONTINUOUS
 62
     7
 10
59.628326000000001
 20
107.20656099999999
 30
0.0
 11
60.707329000000001
 21
107.20656099999999
 31
0.0
  0
LINE
  5
1F5
  8
1
  6
CONTINUOUS
 62
     7
 10
60.707329000000001
 20
107.20656099999999
 30
0.0
 11
60.707329000000001
 21
106.95656099999999
 31
0.0
  0
LINE
  5
1F6
  8
1
  6
CONTINUOUS
 62
     7
 10
59.827157999999997
 20
106.95656099999999
 30
0.0
 11
60.707329000000001
 21
106.95656099999999
 31
0.0
  0
LINE
  5
1F7
  8
1
  6
CONTINUOUS
 62
     7
 10
62.457329000000001
 20
106.95656099999999
 30
0.0
 11
62.457329000000001
 21
107.20656099999999
 31
0.0
  0
LINE
  5
1F8
  8
1
  6
CONTINUOUS
 62
     7
 10
62.457329000000001
 20
107.20656099999999
 30
0.0
 11
63.536330999999997
 21
107.20656099999999
 31
0.0
  0
LINE
  5
1F9
  8
1
  6
CONTINUOUS
 62
     7
 10
62.457329000000001
 20
106.95656099999999
 30
0.0
 11
63.337499999999999
 21
106.95656099999999
 31
0.0
  0
LINE
  5
1FA
  8
1
  6
CONTINUOUS
 62
     7
 10
62.332329000000001
 20
107.20656099999999
 30
0.0
 11
62.457329000000001
 21
107.20656099999999
 31
0.0
  0
LINE
  5
1FB
  8
1
  6
CONTINUOUS
 62
     7
 10
63.880290000000002
 20
107.95656099999999
 30
0.0
 11
62.332329000000001
 21
107.95656099999999
 31
0.0
  0
LINE
  5
1FC
  8
1
  6
CONTINUOUS
 62
     7
 10
60.832329000000001
 20
107.95656099999999
 30
0.0
 11
59.284368000000001
 21
107.95656099999999
 31
0.0
  0
LINE
  5
1FD
  8
1
  6
CONTINUOUS
 62
     7
 10
60.707329000000001
 20
107.20656099999999
 30
0.0
 11
60.832329000000001
 21
107.20656099999999
 31
0.0
  0
LINE
  5
1FE
  8
1
  6
CONTINUOUS
 62
     7
 10
78.505658999999994
 20
116.056561
 30
0.0
 11
87.330894999999998
 21
116.056561
 31
0.0
  0
LINE
  5
1FF
  8
1
  6
CONTINUOUS
 62
     7
 10
52.833762999999998
 20
116.056561
 30
0.0
 11
61.658997999999997
 21
116.056561
 31
0.0
  0
ARC
  5
200
  8
1
  6
CONTINUOUS
 62
     7
 10
70.082329000000001
 20
120.556561
 30
0.0
 40
9.5500000000000007
 50
208.11249100000001
 51
298.41221100000001
  0
ARC
  5
201
  8
1
  6
CONTINUOUS
 62
     7
 10
70.082329000000001
 20
120.556561
 30
0.0
 40
9.5500000000000007
 50
322.87546500000002
 51
331.88750900000002
  0
ARC
  5
202
  8
1
  6
CONTINUOUS
 62
     7
 10
78.18232900000001
 20
109.056561
 30
0.0
 40
4.125
 50
180.0
 51
96.962063000000001
  0
ARC
  5
203
  8
1
  6
CONTINUOUS
 62
     7
 10
78.18232900000001
 20
109.056561
 30
0.0
 40
4.125
 50
138.03793699999991
 51
180.0
  0
LINE
  5
204
  8
1
  6
CONTINUOUS
 62
     7
 10
86.621072999999996
 20
102.056561
 30
0.0
 11
86.871431999999984
 21
102.056561
 31
0.0
  0
LINE
  5
205
  8
1
  6
CONTINUOUS
 62
     7
 10
86.582328999999987
 20
102.056561
 30
0.0
 11
86.407329000000004
 21
102.056561
 31
0.0
  0
LINE
  5
206
  8
1
  6
CONTINUOUS
 62
     7
 10
61.250568000000008
 20
117.056561
 30
0.0
 11
61.196806999999993
 21
117.056561
 31
0.0
  0
LINE
  5
207
  8
1
  6
CONTINUOUS
 62
     7
 10
78.967850999999996
 20
117.056561
 30
0.0
 11
78.914090000000002
 21
117.056561
 31
0.0
  0
LINE
  5
208
  8
1
  6
CONTINUOUS
 62
     7
 10
53.757328999999999
 20
102.056561
 30
0.0
 11
53.582329000000001
 21
102.056561
 31
0.0
  0
LINE
  5
209
  8
1
  6
CONTINUOUS
 62
     7
 10
60.832329000000001
 20
106.30309199999991
 30
0.0
 11
60.832329000000001
 21
109.95656099999999
 31
0.0
  0
LINE
  5
20A
  8
1
  6
CONTINUOUS
 62
     7
 10
62.332329000000001
 20
109.95656099999999
 30
0.0
 11
62.332329000000001
 21
106.30309199999991
 31
0.0
  0
LINE
  5
20B
  8
1
  6
CONTINUOUS
 62
     7
 10
62.332329000000001
 20
109.95656099999999
 30
0.0
 11
60.832329000000001
 21
109.95656099999999
 31
0.0
  0
LINE
  5
20C
  8
1
  6
CONTINUOUS
 62
     7
 10
63.337499999999999
 20
106.95656099999999
 30
0.0
 11
62.332329000000001
 21
106.95656099999999
 31
0.0
  0
LINE
  5
20D
  8
1
  6
CONTINUOUS
 62
     7
 10
60.832329000000001
 20
106.95656099999999
 30
0.0
 11
59.827157999999997
 21
106.95656099999999
 31
0.0
  0
LINE
  5
20E
  8
1
  6
CONTINUOUS
 62
     7
 10
86.783360999999999
 20
119.6162689999999
 30
0.0
 11
83.381297000000004
 21
119.6162689999999
 31
0.0
  0
LINE
  5
20F
  8
1
  6
CONTINUOUS
 62
     7
 10
86.313699000000014
 20
120.184809
 30
0.0
 11
83.850959000000003
 21
120.184809
 31
0.0
  0
LINE
  5
210
  8
1
  6
CONTINUOUS
 62
     7
 10
56.783360999999999
 20
119.6162689999999
 30
0.0
 11
53.381296999999989
 21
119.6162689999999
 31
0.0
  0
LINE
  5
211
  8
1
  6
CONTINUOUS
 62
     7
 10
56.313699
 20
120.184809
 30
0.0
 11
53.850958999999989
 21
120.184809
 31
0.0
  0
LINE
  5
212
  8
1
  6
CONTINUOUS
 62
     7
 10
63.52038499999999
 20
108.8216569999999
 30
0.0
 11
62.305591999999997
 21
110.556561
 31
0.0
  0
LINE
  5
213
  8
1
  6
CONTINUOUS
 62
     7
 10
72.678732999999994
 20
137.05656099999999
 30
0.0
 11
66.582329000000001
 21
137.05656099999999
 31
0.0
  0
LINE
  5
214
  8
1
  6
CONTINUOUS
 62
     7
 10
72.678732999999994
 20
136.30656099999999
 30
0.0
 11
72.678732999999994
 21
137.05656099999999
 31
0.0
  0
LINE
  5
215
  8
1
  6
CONTINUOUS
 62
     7
 10
70.259105000000005
 20
140.80656099999999
 30
0.0
 11
67.698444999999992
 21
140.80656099999999
 31
0.0
  0
LINE
  5
216
  8
1
  6
CONTINUOUS
 62
     7
 10
70.259105000000005
 20
140.80656099999999
 30
0.0
 11
70.259105000000005
 21
137.30656099999999
 31
0.0
  0
LINE
  5
217
  8
1
  6
CONTINUOUS
 62
     7
 10
73.235105000000004
 20
137.05656099999999
 30
0.0
 11
73.235105000000004
 21
137.30656099999999
 31
0.0
  0
LINE
  5
218
  8
1
  6
CONTINUOUS
 62
     7
 10
72.678732999999994
 20
137.05656099999999
 30
0.0
 11
73.235105000000004
 21
137.05656099999999
 31
0.0
  0
LINE
  5
219
  8
1
  6
CONTINUOUS
 62
     7
 10
73.235105000000004
 20
136.30656099999999
 30
0.0
 11
73.235105000000004
 21
137.05656099999999
 31
0.0
  0
LINE
  5
21A
  8
1
  6
CONTINUOUS
 62
     7
 10
77.584479999999999
 20
137.05656099999999
 30
0.0
 11
76.848974999999996
 21
137.05656099999999
 31
0.0
  0
LINE
  5
21B
  8
1
  6
CONTINUOUS
 62
     7
 10
76.848974999999996
 20
137.30656099999999
 30
0.0
 11
76.848974999999996
 21
137.05656099999999
 31
0.0
  0
LINE
  5
21C
  8
1
  6
CONTINUOUS
 62
     7
 10
76.848974999999996
 20
137.05656099999999
 30
0.0
 11
76.848974999999996
 21
136.30656099999999
 31
0.0
  0
LINE
  5
21D
  8
1
  6
CONTINUOUS
 62
     7
 10
77.584479999999999
 20
137.05656099999999
 30
0.0
 11
77.584479999999999
 21
136.30656099999999
 31
0.0
  0
LINE
  5
21E
  8
1
  6
CONTINUOUS
 62
     7
 10
73.235105000000004
 20
137.05656099999999
 30
0.0
 11
76.848974999999996
 21
137.05656099999999
 31
0.0
  0
LINE
  5
21F
  8
1
  6
CONTINUOUS
 62
     7
 10
72.557203000000001
 20
140.80656099999999
 30
0.0
 11
70.259105000000005
 21
140.80656099999999
 31
0.0
  0
LINE
  5
220
  8
1
  6
CONTINUOUS
 62
     7
 10
77.584479999999999
 20
137.05656099999999
 30
0.0
 11
77.732328999999993
 21
137.05656099999999
 31
0.0
  0
LINE
  5
221
  8
1
  6
CONTINUOUS
 62
     7
 10
74.503815000000003
 20
140.80656099999999
 30
0.0
 11
72.557203000000001
 21
140.80656099999999
 31
0.0
  0
LINE
  5
222
  8
1
  6
CONTINUOUS
 62
     7
 10
74.503815000000003
 20
137.30656099999999
 30
0.0
 11
74.503815000000003
 21
140.80656099999999
 31
0.0
  0
LINE
  5
223
  8
1
  6
CONTINUOUS
 62
     7
 10
74.634834999999995
 20
140.80656099999999
 30
0.0
 11
74.503815000000003
 21
140.80656099999999
 31
0.0
  0
LINE
  5
224
  8
1
  6
CONTINUOUS
 62
     7
 10
60.045266000000012
 20
108.38018599999999
 30
0.0
 11
59.213887
 21
108.38018599999999
 31
0.0
  0
LINE
  5
225
  8
1
  6
CONTINUOUS
 62
     7
 10
59.648782999999987
 20
108.8166149999999
 30
0.0
 11
59.221608999999987
 21
108.8166149999999
 31
0.0
  0
LINE
  5
226
  8
1
  6
CONTINUOUS
 62
     7
 10
63.950770999999989
 20
108.38018599999999
 30
0.0
 11
63.119391
 21
108.38018599999999
 31
0.0
  0
LINE
  5
227
  8
1
  6
CONTINUOUS
 62
     7
 10
63.943047999999997
 20
108.8166149999999
 30
0.0
 11
63.515875000000001
 21
108.8166149999999
 31
0.0
  0
LINE
  5
228
  8
1
  6
CONTINUOUS
 62
     7
 10
77.332329000000001
 20
135.95656099999999
 30
0.0
 11
77.332329000000001
 21
136.20656099999999
 31
0.0
  0
LINE
  5
229
  8
1
  6
CONTINUOUS
 62
     7
 10
71.832329000000001
 20
135.95656099999999
 30
0.0
 11
77.332329000000001
 21
135.95656099999999
 31
0.0
  0
LINE
  5
22A
  8
1
  6
CONTINUOUS
 62
     7
 10
62.832329000000001
 20
135.95656099999999
 30
0.0
 11
68.332329000000001
 21
135.95656099999999
 31
0.0
  0
LINE
  5
22B
  8
1
  6
CONTINUOUS
 62
     7
 10
62.832329000000001
 20
136.20656099999999
 30
0.0
 11
62.832329000000001
 21
135.95656099999999
 31
0.0
  0
LINE
  5
22C
  8
1
  6
CONTINUOUS
 62
     7
 10
77.332329000000001
 20
135.95656099999999
 30
0.0
 11
77.832329000000001
 21
135.95656099999999
 31
0.0
  0
LINE
  5
22D
  8
1
  6
CONTINUOUS
 62
     7
 10
62.332329000000001
 20
135.95656099999999
 30
0.0
 11
62.832329000000001
 21
135.95656099999999
 31
0.0
  0
LINE
  5
22E
  8
1
  6
CONTINUOUS
 62
     7
 10
57.40681099999999
 20
118.556561
 30
0.0
 11
52.96472099999999
 21
118.556561
 31
0.0
  0
LINE
  5
22F
  8
1
  6
CONTINUOUS
 62
     7
 10
87.199937000000006
 20
118.556561
 30
0.0
 11
82.757846999999998
 21
118.556561
 31
0.0
  0
LINE
  5
230
  8
1
  6
CONTINUOUS
 62
     7
 10
55.082329000000001
 20
130.05591799999999
 30
0.0
 11
55.082329000000001
 21
120.212878
 31
0.0
  0
LINE
  5
231
  8
1
  6
CONTINUOUS
 62
     7
 10
85.082329000000016
 20
120.212878
 30
0.0
 11
85.082329000000016
 21
130.05591799999999
 31
0.0
  0
LINE
  5
232
  8
1
  6
CONTINUOUS
 62
     7
 10
68.332329000000001
 20
136.05656099999999
 30
0.0
 11
71.832329000000001
 21
136.05656099999999
 31
0.0
  0
LINE
  5
233
  8
1
  6
CONTINUOUS
 62
     7
 10
80.396505999999988
 20
109.5188959999999
 30
0.0
 11
79.883010999999996
 21
109.5638209999999
 31
0.0
  0
LINE
  5
234
  8
1
  6
CONTINUOUS
 62
     7
 10
79.433194
 20
107.29082099999999
 30
0.0
 11
79.388268999999994
 21
106.77732399999989
 31
0.0
  0
LINE
  5
235
  8
1
  6
CONTINUOUS
 62
     7
 10
77.677770999999993
 20
111.52797700000001
 30
0.0
 11
78.009098999999992
 21
111.1331159999999
 31
0.0
  0
LINE
  5
236
  8
1
  6
CONTINUOUS
 62
     7
 10
78.71351700000001
 20
111.071487
 30
0.0
 11
79.108378999999999
 21
111.4028149999999
 31
0.0
  0
LINE
  5
237
  8
1
  6
CONTINUOUS
 62
     7
 10
76.352591000000004
 20
110.41601899999991
 30
0.0
 11
76.683920000000001
 21
110.021157
 31
0.0
  0
LINE
  5
238
  8
1
  6
CONTINUOUS
 62
     7
 10
79.825473000000002
 20
109.746306
 30
0.0
 11
80.220336000000003
 21
110.077635
 31
0.0
  0
LINE
  5
239
  8
1
  6
CONTINUOUS
 62
     7
 10
76.416589000000002
 20
107.805696
 30
0.0
 11
75.903092000000001
 21
107.850621
 31
0.0
  0
LINE
  5
23A
  8
1
  6
CONTINUOUS
 62
     7
 10
76.643849000000003
 20
107.534857
 30
0.0
 11
76.598923999999997
 21
107.02136299999999
 31
0.0
  0
LINE
  5
23B
  8
1
  6
CONTINUOUS
 62
     7
 10
76.595568
 20
109.851434
 30
0.0
 11
76.082072999999994
 21
109.896359
 31
0.0
  0
LINE
  5
23C
  8
1
  6
CONTINUOUS
 62
     7
 10
79.108378000000002
 20
111.4028149999999
 30
0.0
 11
79.211444999999998
 21
111.48929800000001
 31
0.0
  0
LINE
  5
23D
  8
1
  6
CONTINUOUS
 62
     7
 10
77.591288000000006
 20
111.63104299999991
 30
0.0
 11
77.677770999999993
 21
111.52797700000001
 31
0.0
  0
LINE
  5
23E
  8
1
  6
CONTINUOUS
 62
     7
 10
75.903093999999996
 20
107.85061999999991
 30
0.0
 11
75.769063000000003
 21
107.8623469999999
 31
0.0
  0
LINE
  5
23F
  8
1
  6
CONTINUOUS
 62
     7
 10
76.598923999999997
 20
107.02136299999999
 30
0.0
 11
76.587198000000001
 21
106.887331
 31
0.0
  0
LINE
  5
240
  8
1
  6
CONTINUOUS
 62
     7
 10
79.388268999999994
 20
106.7773269999999
 30
0.0
 11
79.376542999999998
 21
106.64329499999999
 31
0.0
  0
LINE
  5
241
  8
1
  6
CONTINUOUS
 62
     7
 10
80.217527000000004
 20
107.4731569999999
 30
0.0
 11
80.351558999999995
 21
107.46142999999999
 31
0.0
  0
LINE
  5
242
  8
1
  6
CONTINUOUS
 62
     7
 10
76.266108000000003
 20
110.519086
 30
0.0
 11
76.352591000000004
 21
110.41601899999991
 31
0.0
  0
LINE
  5
243
  8
1
  6
CONTINUOUS
 62
     7
 10
76.082072999999994
 20
109.896359
 30
0.0
 11
75.948042000000001
 21
109.908086
 31
0.0
  0
LINE
  5
244
  8
1
  6
CONTINUOUS
 62
     7
 10
80.530538000000007
 20
109.50716899999991
 30
0.0
 11
80.396505999999988
 21
109.5188959999999
 31
0.0
  0
LINE
  5
245
  8
1
  6
CONTINUOUS
 62
     7
 10
80.220336000000003
 20
110.077635
 30
0.0
 11
80.323402000000002
 21
110.1641179999999
 31
0.0
  0
CIRCLE
  5
246
  8
1
  6
CONTINUOUS
 62
     7
 10
61.582329000000001
 20
108.556561
 30
0.0
 40
2.5
  0
LINE
  5
247
  8
1
  6
DASHDOT
 62
     7
 10
73.678418999999991
 20
109.056561
 30
0.0
 11
82.686238999999986
 21
109.056561
 31
0.0
  0
LINE
  5
248
  8
1
  6
DASHDOT
 62
     7
 10
78.18232900000001
 20
115.88060299999999
 30
0.0
 11
78.18232900000001
 21
102.2325189999999
 31
0.0
  0
LINE
  5
249
  8
1
  6
DASHDOT
 62
     7
 10
61.582329000000001
 20
115.38060299999999
 30
0.0
 11
61.582329000000001
 21
101.7325189999999
 31
0.0
  0
LINE
  5
24A
  8
1
  6
DASHDOT
 62
     7
 10
57.078418999999997
 20
108.556561
 30
0.0
 11
66.086239000000006
 21
108.556561
 31
0.0
  0
LINE
  5
24B
  8
1
  6
CONTINUOUS
 62
     7
 10
87.633033999999995
 20
103.0030659999999
 30
0.0
 11
88.332329000000001
 21
116.056561
 31
0.0
  0
ARC
  5
24C
  8
1
  6
CONTINUOUS
 62
     7
 10
86.634466000000003
 20
103.056561
 30
0.0
 40
1.0
 50
270.0
 51
356.933514
  0
LINE
  5
24D
  8
1
  6
CONTINUOUS
 62
     7
 10
51.832329000000001
 20
116.056561
 30
0.0
 11
52.531622999999989
 21
103.0030659999999
 31
0.0
  0
LINE
  5
24E
  8
1
  6
CONTINUOUS
 62
     7
 10
53.543583999999989
 20
102.056561
 30
0.0
 11
53.530191000000002
 21
102.056561
 31
0.0
  0
ARC
  5
24F
  8
1
  6
CONTINUOUS
 62
     7
 10
53.530191000000002
 20
103.056561
 30
0.0
 40
1.0
 50
183.06648599999991
 51
270.0
  0
LINE
  5
250
  8
1
  6
CONTINUOUS
 62
     7
 10
190.89299299999999
 20
109.67483300000001
 30
0.0
 11
190.89299299999999
 21
106.17483300000001
 31
0.0
  0
LINE
  5
251
  8
1
  6
CONTINUOUS
 62
     7
 10
190.89299299999999
 20
125.9382889999999
 30
0.0
 11
190.89299299999999
 21
122.4382889999999
 31
0.0
  0
LINE
  5
252
  8
1
  6
CONTINUOUS
 62
     7
 10
193.292993
 20
108.000973
 30
0.0
 11
193.37712500000001
 21
108.000973
 31
0.0
  0
LINE
  5
253
  8
1
  6
CONTINUOUS
 62
     7
 10
193.292993
 20
102.806561
 30
0.0
 11
196.042993
 21
102.806561
 31
0.0
  0
LINE
  5
254
  8
1
  6
CONTINUOUS
 62
     7
 10
193.29298399999999
 20
111.1178109999999
 30
0.0
 11
193.38410899999991
 21
111.1178109999999
 31
0.0
  0
LINE
  5
255
  8
1
  6
CONTINUOUS
 62
     7
 10
239.69323199999991
 20
111.52797700000001
 30
0.0
 11
239.973468
 21
111.306561
 31
0.0
  0
LINE
  5
256
  8
1
  6
CONTINUOUS
 62
     7
 10
236.09299300000001
 20
111.613274
 30
0.0
 11
239.69323199999991
 21
111.52797700000001
 31
0.0
  0
LINE
  5
257
  8
1
  6
CONTINUOUS
 62
     7
 10
236.07592099999991
 20
111.42702199999989
 30
0.0
 11
236.09299300000001
 21
111.42702199999989
 31
0.0
  0
LINE
  5
258
  8
1
  6
CONTINUOUS
 62
     7
 10
233.542993
 20
120.556561
 30
0.0
 11
235.59299300000001
 21
120.556561
 31
0.0
  0
LINE
  5
259
  8
1
  6
CONTINUOUS
 62
     7
 10
235.59299300000001
 20
132.655224
 30
0.0
 11
235.59299300000001
 21
120.556561
 31
0.0
  0
LINE
  5
25A
  8
1
  6
CONTINUOUS
 62
     7
 10
235.59299300000001
 20
120.556561
 30
0.0
 11
236.09299300000001
 21
120.556561
 31
0.0
  0
LINE
  5
25B
  8
1
  6
CONTINUOUS
 62
     7
 10
235.59299300000001
 20
120.556561
 30
0.0
 11
235.59299300000001
 21
111.306561
 31
0.0
  0
LINE
  5
25C
  8
1
  6
CONTINUOUS
 62
     7
 10
223.9587129999999
 20
137.05636899999999
 30
0.0
 11
223.9587129999999
 21
137.20656099999999
 31
0.0
  0
LINE
  5
25D
  8
1
  6
CONTINUOUS
 62
     7
 10
222.68682999999999
 20
137.04454799999991
 30
0.0
 11
222.68682999999999
 21
137.20656099999999
 31
0.0
  0
LINE
  5
25E
  8
1
  6
CONTINUOUS
 62
     7
 10
235.59299300000001
 20
136.20656099999999
 30
0.0
 11
235.59299300000001
 21
135.95656099999999
 31
0.0
  0
LINE
  5
25F
  8
1
  6
CONTINUOUS
 62
     7
 10
235.59299300000001
 20
135.95656099999999
 30
0.0
 11
232.49299300000001
 21
135.95656099999999
 31
0.0
  0
LINE
  5
260
  8
1
  6
CONTINUOUS
 62
     7
 10
232.49299300000001
 20
135.57418100000001
 30
0.0
 11
232.49299300000001
 21
135.95656099999999
 31
0.0
  0
LINE
  5
261
  8
1
  6
CONTINUOUS
 62
     7
 10
235.59299300000001
 20
135.95656099999999
 30
0.0
 11
236.09299300000001
 21
135.95656099999999
 31
0.0
  0
LINE
  5
262
  8
1
  6
CONTINUOUS
 62
     7
 10
235.59299300000001
 20
135.95656099999999
 30
0.0
 11
235.59299300000001
 21
135.57418100000001
 31
0.0
  0
LINE
  5
263
  8
1
  6
CONTINUOUS
 62
     7
 10
232.49299300000001
 20
135.95656099999999
 30
0.0
 11
232.49299300000001
 21
136.20656099999999
 31
0.0
  0
LINE
  5
264
  8
1
  6
CONTINUOUS
 62
     7
 10
228.61066099999999
 20
135.95656099999999
 30
0.0
 11
232.49299300000001
 21
135.95656099999999
 31
0.0
  0
LINE
  5
265
  8
1
  6
CONTINUOUS
 62
     7
 10
235.59299300000001
 20
134.47530199999991
 30
0.0
 11
233.48981800000001
 21
134.47530199999991
 31
0.0
  0
LINE
  5
266
  8
1
  6
CONTINUOUS
 62
     7
 10
235.59299300000001
 20
132.7990969999999
 30
0.0
 11
235.59299300000001
 21
134.47530199999991
 31
0.0
  0
LINE
  5
267
  8
1
  6
CONTINUOUS
 62
     7
 10
235.59299300000001
 20
134.9245389999999
 30
0.0
 11
235.59299300000001
 21
134.47530199999991
 31
0.0
  0
LINE
  5
268
  8
1
  6
CONTINUOUS
 62
     7
 10
235.59299300000001
 20
134.47530199999991
 30
0.0
 11
236.09299300000001
 21
134.47530199999991
 31
0.0
  0
LINE
  5
269
  8
1
  6
CONTINUOUS
 62
     7
 10
233.042993
 20
133.13209299999991
 30
0.0
 11
233.042993
 21
132.75170099999991
 31
0.0
  0
LINE
  5
26A
  8
1
  6
CONTINUOUS
 62
     7
 10
231.292993
 20
132.75170099999991
 30
0.0
 11
233.042993
 21
132.75170099999991
 31
0.0
  0
LINE
  5
26B
  8
1
  6
CONTINUOUS
 62
     7
 10
233.042993
 20
132.75170099999991
 30
0.0
 11
233.042993
 21
119.056561
 31
0.0
  0
LINE
  5
26C
  8
1
  6
CONTINUOUS
 62
     7
 10
196.908299
 20
120.1048889999999
 30
0.0
 11
196.8299889999999
 21
132.32422999999989
 31
0.0
  0
LINE
  5
26D
  8
1
  6
CONTINUOUS
 62
     7
 10
231.292993
 20
120.220046
 30
0.0
 11
231.292993
 21
132.75170099999991
 31
0.0
  0
LINE
  5
26E
  8
1
  6
CONTINUOUS
 62
     7
 10
231.292993
 20
133.13209299999991
 30
0.0
 11
231.292993
 21
132.75170099999991
 31
0.0
  0
LINE
  5
26F
  8
1
  6
CONTINUOUS
 62
     7
 10
196.54299299999991
 20
137.05656099999999
 30
0.0
 11
196.54299299999991
 21
132.69419600000001
 31
0.0
  0
LINE
  5
270
  8
1
  6
CONTINUOUS
 62
     7
 10
231.292993
 20
133.13209299999991
 30
0.0
 11
233.042993
 21
133.13209299999991
 31
0.0
  0
LINE
  5
271
  8
1
  6
CONTINUOUS
 62
     7
 10
233.042993
 20
134.9245389999999
 30
0.0
 11
233.042993
 21
133.13209299999991
 31
0.0
  0
LINE
  5
272
  8
1
  6
CONTINUOUS
 62
     7
 10
235.59299300000001
 20
134.9245389999999
 30
0.0
 11
233.042993
 21
134.9245389999999
 31
0.0
  0
LINE
  5
273
  8
1
  6
CONTINUOUS
 62
     7
 10
235.59299300000001
 20
134.9245389999999
 30
0.0
 11
235.59299300000001
 21
135.57418100000001
 31
0.0
  0
LINE
  5
274
  8
1
  6
CONTINUOUS
 62
     7
 10
197.042993
 20
118.5827289999999
 30
0.0
 11
197.042993
 21
119.056561
 31
0.0
  0
LINE
  5
275
  8
1
  6
CONTINUOUS
 62
     7
 10
232.542993
 20
119.056561
 30
0.0
 11
232.542993
 21
118.5827289999999
 31
0.0
  0
LINE
  5
276
  8
1
  6
CONTINUOUS
 62
     7
 10
201.0669959999999
 20
127.16010300000001
 30
0.0
 11
228.518989
 21
127.16010300000001
 31
0.0
  0
LINE
  5
277
  8
1
  6
CONTINUOUS
 62
     7
 10
200.61747500000001
 20
118.5827289999999
 30
0.0
 11
201.0669959999999
 21
127.16010300000001
 31
0.0
  0
LINE
  5
278
  8
1
  6
CONTINUOUS
 62
     7
 10
197.042993
 20
118.5827289999999
 30
0.0
 11
200.61747500000001
 21
118.5827289999999
 31
0.0
  0
LINE
  5
279
  8
1
  6
CONTINUOUS
 62
     7
 10
228.96851000000001
 20
118.5827289999999
 30
0.0
 11
232.542993
 21
118.5827289999999
 31
0.0
  0
LINE
  5
27A
  8
1
  6
CONTINUOUS
 62
     7
 10
228.518989
 20
127.16010300000001
 30
0.0
 11
228.96851000000001
 21
118.5827289999999
 31
0.0
  0
LINE
  5
27B
  8
1
  6
CONTINUOUS
 62
     7
 10
228.07150599999991
 20
140.80656099999999
 30
0.0
 11
227.94048699999999
 21
140.80656099999999
 31
0.0
  0
LINE
  5
27C
  8
1
  6
CONTINUOUS
 62
     7
 10
230.0181189999999
 20
140.80656099999999
 30
0.0
 11
228.07150599999991
 21
140.80656099999999
 31
0.0
  0
LINE
  5
27D
  8
1
  6
CONTINUOUS
 62
     7
 10
228.07150599999991
 20
137.30656099999999
 30
0.0
 11
228.07150599999991
 21
140.80656099999999
 31
0.0
  0
LINE
  5
27E
  8
1
  6
CONTINUOUS
 62
     7
 10
224.84299299999989
 20
137.05656099999999
 30
0.0
 11
224.99084099999999
 21
137.05656099999999
 31
0.0
  0
LINE
  5
27F
  8
1
  6
CONTINUOUS
 62
     7
 10
232.316216
 20
140.80656099999999
 30
0.0
 11
230.0181189999999
 21
140.80656099999999
 31
0.0
  0
LINE
  5
280
  8
1
  6
CONTINUOUS
 62
     7
 10
224.99084099999999
 20
136.92918099999989
 30
0.0
 11
224.99084099999999
 21
137.05656099999999
 31
0.0
  0
LINE
  5
281
  8
1
  6
CONTINUOUS
 62
     7
 10
225.72634600000001
 20
136.67632
 30
0.0
 11
225.72634600000001
 21
137.05656099999999
 31
0.0
  0
LINE
  5
282
  8
1
  6
CONTINUOUS
 62
     7
 10
225.72634600000001
 20
137.05656099999999
 30
0.0
 11
229.340216
 21
137.05656099999999
 31
0.0
  0
LINE
  5
283
  8
1
  6
CONTINUOUS
 62
     7
 10
225.72634600000001
 20
137.30656099999999
 30
0.0
 11
225.72634600000001
 21
137.05656099999999
 31
0.0
  0
LINE
  5
284
  8
1
  6
CONTINUOUS
 62
     7
 10
225.72634600000001
 20
137.05656099999999
 30
0.0
 11
224.99084099999999
 21
137.05656099999999
 31
0.0
  0
LINE
  5
285
  8
1
  6
CONTINUOUS
 62
     7
 10
229.340216
 20
137.05656099999999
 30
0.0
 11
229.340216
 21
136.30656099999999
 31
0.0
  0
LINE
  5
286
  8
1
  6
CONTINUOUS
 62
     7
 10
229.340216
 20
137.05656099999999
 30
0.0
 11
229.340216
 21
137.30656099999999
 31
0.0
  0
LINE
  5
287
  8
1
  6
CONTINUOUS
 62
     7
 10
229.340216
 20
137.05656099999999
 30
0.0
 11
229.89658799999989
 21
137.05656099999999
 31
0.0
  0
LINE
  5
288
  8
1
  6
CONTINUOUS
 62
     7
 10
232.316216
 20
137.30656099999999
 30
0.0
 11
232.316216
 21
140.80656099999999
 31
0.0
  0
LINE
  5
289
  8
1
  6
CONTINUOUS
 62
     7
 10
234.87687600000001
 20
140.80656099999999
 30
0.0
 11
232.316216
 21
140.80656099999999
 31
0.0
  0
LINE
  5
28A
  8
1
  6
CONTINUOUS
 62
     7
 10
229.89658799999989
 20
137.05656099999999
 30
0.0
 11
229.89658799999989
 21
136.30656099999999
 31
0.0
  0
LINE
  5
28B
  8
1
  6
CONTINUOUS
 62
     7
 10
235.99299300000001
 20
137.05656099999999
 30
0.0
 11
229.89658799999989
 21
137.05656099999999
 31
0.0
  0
LINE
  5
28C
  8
1
  6
CONTINUOUS
 62
     7
 10
199.52436299999999
 20
120.184809
 30
0.0
 11
197.061623
 21
120.184809
 31
0.0
  0
LINE
  5
28D
  8
1
  6
CONTINUOUS
 62
     7
 10
199.99402499999999
 20
119.6162689999999
 30
0.0
 11
196.591961
 21
119.6162689999999
 31
0.0
  0
LINE
  5
28E
  8
1
  6
CONTINUOUS
 62
     7
 10
232.52436299999999
 20
120.184809
 30
0.0
 11
230.061623
 21
120.184809
 31
0.0
  0
LINE
  5
28F
  8
1
  6
CONTINUOUS
 62
     7
 10
232.99402499999991
 20
119.6162689999999
 30
0.0
 11
229.59196099999991
 21
119.6162689999999
 31
0.0
  0
LINE
  5
290
  8
1
  6
CONTINUOUS
 62
     7
 10
199.79299299999991
 20
102.056561
 30
0.0
 11
199.6179929999999
 21
102.056561
 31
0.0
  0
LINE
  5
291
  8
1
  6
CONTINUOUS
 62
     7
 10
229.96799299999989
 20
102.056561
 30
0.0
 11
229.792993
 21
102.056561
 31
0.0
  0
LINE
  5
292
  8
1
  6
CONTINUOUS
 62
     7
 10
232.542993
 20
102.056561
 30
0.0
 11
197.042993
 21
102.056561
 31
0.0
  0
LINE
  5
293
  8
1
  6
CONTINUOUS
 62
     7
 10
196.042993
 20
110.4342689999999
 30
0.0
 11
196.042993
 21
116.0557399999999
 31
0.0
  0
LINE
  5
294
  8
1
  6
CONTINUOUS
 62
     7
 10
196.042993
 20
102.806561
 30
0.0
 11
196.08094299999991
 21
102.7987119999999
 31
0.0
  0
LINE
  5
295
  8
1
  6
CONTINUOUS
 62
     7
 10
197.042993
 20
116.056561
 30
0.0
 11
232.542993
 21
116.056561
 31
0.0
  0
LINE
  5
296
  8
1
  6
CONTINUOUS
 62
     7
 10
239.69323199999991
 20
111.306561
 30
0.0
 11
239.69323199999991
 21
111.52797700000001
 31
0.0
  0
LINE
  5
297
  8
1
  6
CONTINUOUS
 62
     7
 10
235.34299300000001
 20
105.306561
 30
0.0
 11
235.34299300000001
 21
105.806561
 31
0.0
  0
LINE
  5
298
  8
1
  6
CONTINUOUS
 62
     7
 10
233.692993
 20
105.806561
 30
0.0
 11
233.692993
 21
105.056561
 31
0.0
  0
LINE
  5
299
  8
1
  6
CONTINUOUS
 62
     7
 10
235.09299299999989
 20
105.806561
 30
0.0
 11
235.09299299999989
 21
105.056561
 31
0.0
  0
LINE
  5
29A
  8
1
  6
CONTINUOUS
 62
     7
 10
196.96799300000001
 20
102.056561
 30
0.0
 11
197.042993
 21
102.056561
 31
0.0
  0
LINE
  5
29B
  8
1
  6
CONTINUOUS
 62
     7
 10
232.542993
 20
102.056561
 30
0.0
 11
232.61799300000001
 21
102.056561
 31
0.0
  0
LINE
  5
29C
  8
1
  6
CONTINUOUS
 62
     7
 10
236.09299300000001
 20
111.38181
 30
0.0
 11
236.09299300000001
 21
111.42702199999989
 31
0.0
  0
LINE
  5
29D
  8
1
  6
CONTINUOUS
 62
     7
 10
236.09299300000001
 20
111.42702199999989
 30
0.0
 11
236.09299300000001
 21
112.22544599999991
 31
0.0
  0
LINE
  5
29E
  8
1
  6
CONTINUOUS
 62
     7
 10
236.09299300000001
 20
135.95656099999999
 30
0.0
 11
236.09299300000001
 21
135.9696999999999
 31
0.0
  0
LINE
  5
29F
  8
1
  6
CONTINUOUS
 62
     7
 10
236.09299300000001
 20
135.10132699999991
 30
0.0
 11
236.09299300000001
 21
135.23161499999989
 31
0.0
  0
LINE
  5
2A0
  8
1
  6
CONTINUOUS
 62
     7
 10
236.09299300000001
 20
132.93156099999999
 30
0.0
 11
236.09299300000001
 21
133.0730969999999
 31
0.0
  0
LINE
  5
2A1
  8
1
  6
CONTINUOUS
 62
     7
 10
233.542993
 20
132.655224
 30
0.0
 11
235.59299300000001
 21
132.655224
 31
0.0
  0
LINE
  5
2A2
  8
1
  6
CONTINUOUS
 62
     7
 10
236.09299300000001
 20
120.556561
 30
0.0
 11
236.09299300000001
 21
132.93156099999999
 31
0.0
  0
LINE
  5
2A3
  8
1
  6
CONTINUOUS
 62
     7
 10
236.09299300000001
 20
111.5745389999999
 30
0.0
 11
236.09299300000001
 21
120.556561
 31
0.0
  0
LINE
  5
2A4
  8
1
  6
CONTINUOUS
 62
     7
 10
224.0148749999999
 20
137.20656099999999
 30
0.0
 11
223.9587129999999
 21
137.20656099999999
 31
0.0
  0
LINE
  5
2A5
  8
1
  6
CONTINUOUS
 62
     7
 10
223.9587129999999
 20
137.20656099999999
 30
0.0
 11
222.68682999999999
 21
137.20656099999999
 31
0.0
  0
LINE
  5
2A6
  8
1
  6
CONTINUOUS
 62
     7
 10
222.68682999999999
 20
137.20656099999999
 30
0.0
 11
222.542993
 21
137.20656099999999
 31
0.0
  0
LINE
  5
2A7
  8
1
  6
CONTINUOUS
 62
     7
 10
222.542993
 20
137.0473969999999
 30
0.0
 11
222.542993
 21
137.20656099999999
 31
0.0
  0
LINE
  5
2A8
  8
1
  6
CONTINUOUS
 62
     7
 10
227.300422
 20
136.20656099999999
 30
0.0
 11
227.32641199999989
 21
136.20656099999999
 31
0.0
  0
LINE
  5
2A9
  8
1
  6
CONTINUOUS
 62
     7
 10
235.99299300000001
 20
136.80656099999999
 30
0.0
 11
235.34299300000001
 21
136.80656099999999
 31
0.0
  0
LINE
  5
2AA
  8
1
  6
CONTINUOUS
 62
     7
 10
235.34299300000001
 20
136.80656099999999
 30
0.0
 11
234.692993
 21
136.80656099999999
 31
0.0
  0
LINE
  5
2AB
  8
1
  6
CONTINUOUS
 62
     7
 10
236.09299300000001
 20
136.70656099999999
 30
0.0
 11
235.34299300000001
 21
136.70656099999999
 31
0.0
  0
LINE
  5
2AC
  8
1
  6
CONTINUOUS
 62
     7
 10
235.34299300000001
 20
136.70656099999999
 30
0.0
 11
234.59299300000001
 21
136.70656099999999
 31
0.0
  0
LINE
  5
2AD
  8
1
  6
CONTINUOUS
 62
     7
 10
232.49299300000001
 20
136.20656099999999
 30
0.0
 11
235.59299300000001
 21
136.20656099999999
 31
0.0
  0
ARC
  5
2AE
  8
1
  6
CONTINUOUS
 62
     7
 10
235.84299300000001
 20
135.95656099999999
 30
0.0
 40
0.25
 50
0.0
 51
90.0
  0
LINE
  5
2AF
  8
1
  6
CONTINUOUS
 62
     7
 10
235.59299300000001
 20
136.20656099999999
 30
0.0
 11
235.84299300000001
 21
136.20656099999999
 31
0.0
  0
LINE
  5
2B0
  8
1
  6
CONTINUOUS
 62
     7
 10
236.09299300000001
 20
135.23174
 30
0.0
 11
236.09299300000001
 21
135.95656099999999
 31
0.0
  0
LINE
  5
2B1
  8
1
  6
CONTINUOUS
 62
     7
 10
227.8807809999999
 20
136.20656099999999
 30
0.0
 11
232.49299300000001
 21
136.20656099999999
 31
0.0
  0
LINE
  5
2B2
  8
1
  6
CONTINUOUS
 62
     7
 10
236.09299300000001
 20
134.47530199999991
 30
0.0
 11
236.09299300000001
 21
135.23174
 31
0.0
  0
LINE
  5
2B3
  8
1
  6
CONTINUOUS
 62
     7
 10
236.09299300000001
 20
133.0730969999999
 30
0.0
 11
236.09299300000001
 21
134.47530199999991
 31
0.0
  0
LINE
  5
2B4
  8
1
  6
CONTINUOUS
 62
     7
 10
233.542993
 20
132.7990969999999
 30
0.0
 11
235.59299300000001
 21
132.7990969999999
 31
0.0
  0
LINE
  5
2B5
  8
1
  6
CONTINUOUS
 62
     7
 10
233.542993
 20
134.22246299999989
 30
0.0
 11
233.542993
 21
132.72553300000001
 31
0.0
  0
LINE
  5
2B6
  8
1
  6
CONTINUOUS
 62
     7
 10
196.042993
 20
132.29806199999999
 30
0.0
 11
196.042993
 21
136.55656099999999
 31
0.0
  0
LINE
  5
2B7
  8
1
  6
CONTINUOUS
 62
     7
 10
233.542993
 20
132.72553300000001
 30
0.0
 11
233.542993
 21
118.556561
 31
0.0
  0
LINE
  5
2B8
  8
1
  6
CONTINUOUS
 62
     7
 10
196.042993
 20
118.55651999999991
 30
0.0
 11
196.042993
 21
119.05652499999989
 31
0.0
  0
LINE
  5
2B9
  8
1
  6
CONTINUOUS
 62
     7
 10
196.042993
 20
119.05652499999989
 30
0.0
 11
196.042993
 21
132.29806199999999
 31
0.0
  0
LINE
  5
2BA
  8
1
  6
CONTINUOUS
 62
     7
 10
200.7194439999999
 20
130.05591799999999
 30
0.0
 11
200.5807889999999
 21
127.41021499999999
 31
0.0
  0
LINE
  5
2BB
  8
1
  6
CONTINUOUS
 62
     7
 10
229.0051959999999
 20
127.41021499999999
 30
0.0
 11
228.86654100000001
 21
130.05591799999999
 31
0.0
  0
LINE
  5
2BC
  8
1
  6
CONTINUOUS
 62
     7
 10
202.042993
 20
132.42940899999999
 30
0.0
 11
202.042993
 21
137.05656099999999
 31
0.0
  0
LINE
  5
2BD
  8
1
  6
CONTINUOUS
 62
     7
 10
222.042993
 20
137.05656099999999
 30
0.0
 11
222.042993
 21
132.42940899999999
 31
0.0
  0
LINE
  5
2BE
  8
1
  6
CONTINUOUS
 62
     7
 10
221.042993
 20
131.78463099999999
 30
0.0
 11
203.04299299999991
 21
131.78463099999999
 31
0.0
  0
LINE
  5
2BF
  8
1
  6
CONTINUOUS
 62
     7
 10
227.8807809999999
 20
136.20656099999999
 30
0.0
 11
227.29902200000001
 21
136.20656099999999
 31
0.0
  0
LINE
  5
2C0
  8
1
  6
CONTINUOUS
 62
     7
 10
235.59299300000001
 20
135.57418100000001
 30
0.0
 11
232.49299300000001
 21
135.57418100000001
 31
0.0
  0
LINE
  5
2C1
  8
1
  6
CONTINUOUS
 62
     7
 10
229.018304
 20
127.16010300000001
 30
0.0
 11
229.0051959999999
 21
127.41021499999999
 31
0.0
  0
LINE
  5
2C2
  8
1
  6
CONTINUOUS
 62
     7
 10
200.5807889999999
 20
127.41021499999999
 30
0.0
 11
200.56768099999991
 21
127.16010300000001
 31
0.0
  0
LINE
  5
2C3
  8
1
  6
CONTINUOUS
 62
     7
 10
200.56768099999991
 20
127.16010300000001
 30
0.0
 11
200.14299299999999
 21
119.056561
 31
0.0
  0
LINE
  5
2C4
  8
1
  6
CONTINUOUS
 62
     7
 10
229.442993
 20
119.056561
 30
0.0
 11
229.018304
 21
127.16010300000001
 31
0.0
  0
LINE
  5
2C5
  8
1
  6
CONTINUOUS
 62
     7
 10
196.54299299999991
 20
119.056561
 30
0.0
 11
197.042993
 21
119.056561
 31
0.0
  0
LINE
  5
2C6
  8
1
  6
CONTINUOUS
 62
     7
 10
196.54299299999991
 20
119.056561
 30
0.0
 11
196.356189
 21
119.019403
 31
0.0
  0
LINE
  5
2C7
  8
1
  6
CONTINUOUS
 62
     7
 10
233.042993
 20
119.056561
 30
0.0
 11
233.22985399999999
 21
119.019392
 31
0.0
  0
LINE
  5
2C8
  8
1
  6
CONTINUOUS
 62
     7
 10
233.042993
 20
119.056561
 30
0.0
 11
232.542993
 21
119.056561
 31
0.0
  0
LINE
  5
2C9
  8
1
  6
CONTINUOUS
 62
     7
 10
197.042993
 20
119.056561
 30
0.0
 11
200.14360899999991
 21
119.056561
 31
0.0
  0
LINE
  5
2CA
  8
1
  6
CONTINUOUS
 62
     7
 10
229.44237599999991
 20
119.056561
 30
0.0
 11
232.542993
 21
119.056561
 31
0.0
  0
LINE
  5
2CB
  8
1
  6
CONTINUOUS
 62
     7
 10
196.042993
 20
116.056561
 30
0.0
 11
197.042993
 21
116.056561
 31
0.0
  0
LINE
  5
2CC
  8
1
  6
CONTINUOUS
 62
     7
 10
196.066869
 20
118.561723
 30
0.0
 11
196.042993
 21
118.556561
 31
0.0
  0
LINE
  5
2CD
  8
1
  6
CONTINUOUS
 62
     7
 10
196.042993
 20
118.556561
 30
0.0
 11
196.042993
 21
116.056561
 31
0.0
  0
LINE
  5
2CE
  8
1
  6
CONTINUOUS
 62
     7
 10
197.042993
 20
116.056561
 30
0.0
 11
232.542993
 21
116.056561
 31
0.0
  0
LINE
  5
2CF
  8
1
  6
CONTINUOUS
 62
     7
 10
232.542993
 20
116.056561
 30
0.0
 11
233.542993
 21
116.056561
 31
0.0
  0
LINE
  5
2D0
  8
1
  6
CONTINUOUS
 62
     7
 10
233.542993
 20
118.556561
 30
0.0
 11
233.542993
 21
116.056561
 31
0.0
  0
LINE
  5
2D1
  8
1
  6
CONTINUOUS
 62
     7
 10
233.542993
 20
118.556561
 30
0.0
 11
233.51961900000001
 21
118.5616149999999
 31
0.0
  0
LINE
  5
2D2
  8
1
  6
CONTINUOUS
 62
     7
 10
228.44048699999999
 20
141.30656099999999
 30
0.0
 11
228.48416
 21
141.30656099999999
 31
0.0
  0
LINE
  5
2D3
  8
1
  6
CONTINUOUS
 62
     7
 10
230.4045319999999
 20
141.30656099999999
 30
0.0
 11
228.48416
 21
141.30656099999999
 31
0.0
  0
LINE
  5
2D4
  8
1
  6
CONTINUOUS
 62
     7
 10
230.0181189999999
 20
137.30656099999999
 30
0.0
 11
230.0181189999999
 21
140.80656099999999
 31
0.0
  0
LINE
  5
2D5
  8
1
  6
CONTINUOUS
 62
     7
 10
232.669769
 20
141.30656099999999
 30
0.0
 11
230.4045319999999
 21
141.30656099999999
 31
0.0
  0
LINE
  5
2D6
  8
1
  6
CONTINUOUS
 62
     7
 10
226.94990200000001
 20
136.30656099999999
 30
0.0
 11
229.340216
 21
136.30656099999999
 31
0.0
  0
LINE
  5
2D7
  8
1
  6
CONTINUOUS
 62
     7
 10
225.72634600000001
 20
137.30656099999999
 30
0.0
 11
229.340216
 21
137.30656099999999
 31
0.0
  0
LINE
  5
2D8
  8
1
  6
CONTINUOUS
 62
     7
 10
225.72634600000001
 20
137.30656099999999
 30
0.0
 11
225.23600999999999
 21
137.30656099999999
 31
0.0
  0
LINE
  5
2D9
  8
1
  6
CONTINUOUS
 62
     7
 10
229.89658799999989
 20
136.30656099999999
 30
0.0
 11
229.340216
 21
136.30656099999999
 31
0.0
  0
LINE
  5
2DA
  8
1
  6
CONTINUOUS
 62
     7
 10
229.340216
 20
137.30656099999999
 30
0.0
 11
230.08204599999999
 21
137.30656099999999
 31
0.0
  0
LINE
  5
2DB
  8
1
  6
CONTINUOUS
 62
     7
 10
232.583797
 20
136.30656099999999
 30
0.0
 11
234.59299300000001
 21
136.30656099999999
 31
0.0
  0
LINE
  5
2DC
  8
1
  6
CONTINUOUS
 62
     7
 10
232.49299300000001
 20
137.30656099999999
 30
0.0
 11
235.734185
 21
137.30656099999999
 31
0.0
  0
LINE
  5
2DD
  8
1
  6
CONTINUOUS
 62
     7
 10
232.49299300000001
 20
137.30656099999999
 30
0.0
 11
230.08204599999999
 21
137.30656099999999
 31
0.0
  0
LINE
  5
2DE
  8
1
  6
CONTINUOUS
 62
     7
 10
196.042993
 20
122.134647
 30
0.0
 11
196.042993
 21
119.05652499999989
 31
0.0
  0
LINE
  5
2DF
  8
1
  6
CONTINUOUS
 62
     7
 10
196.042993
 20
110.4342689999999
 30
0.0
 11
196.042993
 21
108.4224089999999
 31
0.0
  0
ARC
  5
2E0
  8
1
  6
CONTINUOUS
 62
     7
 10
198.292993
 20
115.856561
 30
0.0
 40
4.3634849999999989
 50
86.715517000000006
 51
93.284482999999994
  0
LINE
  5
2E1
  8
1
  6
CONTINUOUS
 62
     7
 10
198.04299299999991
 20
120.212878
 30
0.0
 11
198.04299299999991
 21
120.342651
 31
0.0
  0
ARC
  5
2E2
  8
1
  6
CONTINUOUS
 62
     7
 10
198.292993
 20
115.856561
 30
0.0
 40
4.4930500000000002
 50
93.189669999999978
 51
104.1713469999999
  0
ARC
  5
2E3
  8
1
  6
CONTINUOUS
 62
     7
 10
198.292993
 20
115.856561
 30
0.0
 40
4.4930500000000002
 50
75.828653000000003
 51
86.810330000000008
  0
LINE
  5
2E4
  8
1
  6
CONTINUOUS
 62
     7
 10
198.542993
 20
120.342651
 30
0.0
 11
198.542993
 21
120.212878
 31
0.0
  0
ARC
  5
2E5
  8
1
  6
CONTINUOUS
 62
     7
 10
231.292993
 20
115.856561
 30
0.0
 40
4.3634849999999989
 50
86.715517000000006
 51
93.284482999999994
  0
LINE
  5
2E6
  8
1
  6
CONTINUOUS
 62
     7
 10
231.042993
 20
120.212878
 30
0.0
 11
231.042993
 21
120.342651
 31
0.0
  0
ARC
  5
2E7
  8
1
  6
CONTINUOUS
 62
     7
 10
231.292993
 20
115.856561
 30
0.0
 40
4.4930500000000002
 50
93.189669999999978
 51
104.1713469999999
  0
ARC
  5
2E8
  8
1
  6
CONTINUOUS
 62
     7
 10
231.292993
 20
115.856561
 30
0.0
 40
4.4930500000000002
 50
75.828653000000003
 51
86.810330000000008
  0
LINE
  5
2E9
  8
1
  6
CONTINUOUS
 62
     7
 10
231.542993
 20
120.342651
 30
0.0
 11
231.542993
 21
120.212878
 31
0.0
  0
LINE
  5
2EA
  8
1
  6
CONTINUOUS
 62
     7
 10
191.29299299999991
 20
108.957926
 30
0.0
 11
191.29299299999991
 21
116.056561
 31
0.0
  0
LINE
  5
2EB
  8
1
  6
CONTINUOUS
 62
     7
 10
191.29299299999991
 20
116.056561
 30
0.0
 11
191.29299299999991
 21
128.55656099999999
 31
0.0
  0
LINE
  5
2EC
  8
1
  6
CONTINUOUS
 62
     7
 10
240.13824
 20
111.306561
 30
0.0
 11
239.69002
 21
111.768854
 31
0.0
  0
LINE
  5
2ED
  8
1
  6
CONTINUOUS
 62
     7
 10
239.72053299999999
 20
111.76454
 30
0.0
 11
236.09299300000001
 21
111.876627
 31
0.0
  0
LINE
  5
2EE
  8
1
  6
CONTINUOUS
 62
     7
 10
233.542993
 20
105.20656099999999
 30
0.0
 11
233.692993
 21
105.20656099999999
 31
0.0
  0
LINE
  5
2EF
  8
1
  6
CONTINUOUS
 62
     7
 10
235.09299299999989
 20
105.056561
 30
0.0
 11
235.34299300000001
 21
105.306561
 31
0.0
  0
LINE
  5
2F0
  8
1
  6
CONTINUOUS
 62
     7
 10
233.692993
 20
105.056561
 30
0.0
 11
235.09299299999989
 21
105.056561
 31
0.0
  0
LINE
  5
2F1
  8
1
  6
CONTINUOUS
 62
     7
 10
236.06146000000001
 20
111.38181
 30
0.0
 11
236.09299300000001
 21
111.38181
 31
0.0
  0
ARC
  5
2F2
  8
1
  6
CONTINUOUS
 62
     7
 10
235.59299300000001
 20
111.556561
 30
0.0
 40
0.5
 50
330.0
 51
0.0
  0
LINE
  5
2F3
  8
1
  6
CONTINUOUS
 62
     7
 10
224.0148749999999
 20
137.056555
 30
0.0
 11
224.0148749999999
 21
137.20656099999999
 31
0.0
  0
LINE
  5
2F4
  8
1
  6
CONTINUOUS
 62
     7
 10
234.692993
 20
136.80656099999999
 30
0.0
 11
234.59299300000001
 21
136.70656099999999
 31
0.0
  0
LINE
  5
2F5
  8
1
  6
CONTINUOUS
 62
     7
 10
236.09299300000001
 20
136.70656099999999
 30
0.0
 11
235.99299300000001
 21
136.80656099999999
 31
0.0
  0
LINE
  5
2F6
  8
1
  6
CONTINUOUS
 62
     7
 10
234.59299300000001
 20
136.70656099999999
 30
0.0
 11
234.59299300000001
 21
136.20656099999999
 31
0.0
  0
LINE
  5
2F7
  8
1
  6
CONTINUOUS
 62
     7
 10
236.09299300000001
 20
135.9696999999999
 30
0.0
 11
236.09299300000001
 21
136.70656099999999
 31
0.0
  0
ARC
  5
2F8
  8
1
  6
CONTINUOUS
 62
     7
 10
196.54299299999991
 20
136.55656099999999
 30
0.0
 40
0.5
 50
90.0
 51
180.0
  0
LINE
  5
2F9
  8
1
  6
CONTINUOUS
 62
     7
 10
222.042993
 20
136.90656100000001
 30
0.0
 11
215.792993
 21
136.90656100000001
 31
0.0
  0
LINE
  5
2FA
  8
1
  6
CONTINUOUS
 62
     7
 10
213.792993
 20
136.90656100000001
 30
0.0
 11
202.042993
 21
136.90656100000001
 31
0.0
  0
LINE
  5
2FB
  8
1
  6
CONTINUOUS
 62
     7
 10
224.64299299999999
 20
137.05656099999999
 30
0.0
 11
224.01365699999999
 21
137.05656099999999
 31
0.0
  0
LINE
  5
2FC
  8
1
  6
CONTINUOUS
 62
     7
 10
222.542993
 20
137.05656099999999
 30
0.0
 11
222.042993
 21
137.05656099999999
 31
0.0
  0
LINE
  5
2FD
  8
1
  6
CONTINUOUS
 62
     7
 10
202.042993
 20
137.05656099999999
 30
0.0
 11
196.54299299999991
 21
137.05656099999999
 31
0.0
  0
LINE
  5
2FE
  8
1
  6
CONTINUOUS
 62
     7
 10
227.94048699999999
 20
140.80656099999999
 30
0.0
 11
227.94048699999999
 21
137.30656099999999
 31
0.0
  0
ARC
  5
2FF
  8
1
  6
CONTINUOUS
 62
     7
 10
228.44048699999999
 20
140.80656099999999
 30
0.0
 40
0.5
 50
90.0
 51
180.0
  0
LINE
  5
300
  8
1
  6
CONTINUOUS
 62
     7
 10
224.84299299999989
 20
137.05656099999999
 30
0.0
 11
224.84299299999989
 21
136.98222699999999
 31
0.0
  0
ARC
  5
301
  8
1
  6
CONTINUOUS
 62
     7
 10
225.09299300000001
 20
137.05656099999999
 30
0.0
 40
0.25
 50
90.0
 51
180.0
  0
LINE
  5
302
  8
1
  6
CONTINUOUS
 62
     7
 10
234.87687600000001
 20
137.30656099999999
 30
0.0
 11
234.87687600000001
 21
140.80656099999999
 31
0.0
  0
ARC
  5
303
  8
1
  6
CONTINUOUS
 62
     7
 10
234.3768759999999
 20
140.80656099999999
 30
0.0
 40
0.5
 50
0.0
 51
90.0
  0
LINE
  5
304
  8
1
  6
CONTINUOUS
 62
     7
 10
235.99299300000001
 20
136.80656099999999
 30
0.0
 11
235.99299300000001
 21
137.05656099999999
 31
0.0
  0
ARC
  5
305
  8
1
  6
CONTINUOUS
 62
     7
 10
235.74299300000001
 20
137.05656099999999
 30
0.0
 40
0.25
 50
0.0
 51
90.0
  0
ARC
  5
306
  8
1
  6
CONTINUOUS
 62
     7
 10
197.239487
 20
119.5596169999999
 30
0.0
 40
0.65
 50
105.88085
 51
175.0
  0
ARC
  5
307
  8
1
  6
CONTINUOUS
 62
     7
 10
199.34649799999991
 20
119.5596169999999
 30
0.0
 40
0.65
 50
5.0
 51
74.119150000000005
  0
LINE
  5
308
  8
1
  6
CONTINUOUS
 62
     7
 10
196.591961
 20
119.6162689999999
 30
0.0
 11
196.54299299999991
 21
119.056561
 31
0.0
  0
LINE
  5
309
  8
1
  6
CONTINUOUS
 62
     7
 10
200.042993
 20
119.056561
 30
0.0
 11
199.99402499999999
 21
119.6162689999999
 31
0.0
  0
ARC
  5
30A
  8
1
  6
CONTINUOUS
 62
     7
 10
230.239487
 20
119.5596169999999
 30
0.0
 40
0.65
 50
105.88085
 51
175.0
  0
ARC
  5
30B
  8
1
  6
CONTINUOUS
 62
     7
 10
232.346498
 20
119.5596169999999
 30
0.0
 40
0.65
 50
5.0
 51
74.119150000000005
  0
LINE
  5
30C
  8
1
  6
CONTINUOUS
 62
     7
 10
229.59196099999991
 20
119.6162689999999
 30
0.0
 11
229.542993
 21
119.056561
 31
0.0
  0
LINE
  5
30D
  8
1
  6
CONTINUOUS
 62
     7
 10
233.042993
 20
119.056561
 30
0.0
 11
232.99402499999991
 21
119.6162689999999
 31
0.0
  0
LINE
  5
30E
  8
1
  6
CONTINUOUS
 62
     7
 10
233.52398999999991
 20
118.5615819999999
 30
0.0
 11
233.50850099999991
 21
118.7092589999999
 31
0.0
  0
LINE
  5
30F
  8
1
  6
CONTINUOUS
 62
     7
 10
233.50850099999991
 20
118.7092589999999
 30
0.0
 11
233.44800699999999
 21
118.843836
 31
0.0
  0
LINE
  5
310
  8
1
  6
CONTINUOUS
 62
     7
 10
233.44800699999999
 20
118.843836
 30
0.0
 11
233.34742299999991
 21
118.95246899999999
 31
0.0
  0
LINE
  5
311
  8
1
  6
CONTINUOUS
 62
     7
 10
233.34742299999991
 20
118.95246899999999
 30
0.0
 11
233.21557200000001
 21
119.025234
 31
0.0
  0
LINE
  5
312
  8
1
  6
CONTINUOUS
 62
     7
 10
196.356909
 20
119.020045
 30
0.0
 11
196.230425
 21
118.9458679999999
 31
0.0
  0
LINE
  5
313
  8
1
  6
CONTINUOUS
 62
     7
 10
196.230425
 20
118.9458679999999
 30
0.0
 11
196.13458600000001
 21
118.837986
 31
0.0
  0
LINE
  5
314
  8
1
  6
CONTINUOUS
 62
     7
 10
196.13458600000001
 20
118.837986
 30
0.0
 11
196.07721799999999
 21
118.70593700000001
 31
0.0
  0
LINE
  5
315
  8
1
  6
CONTINUOUS
 62
     7
 10
196.07721799999999
 20
118.70593700000001
 30
0.0
 11
196.06281000000001
 21
118.5616879999999
 31
0.0
  0
LINE
  5
316
  8
1
  6
CONTINUOUS
 62
     7
 10
230.0181189999999
 20
140.80656099999999
 30
0.0
 11
230.02554399999991
 21
140.90410600000001
 31
0.0
  0
LINE
  5
317
  8
1
  6
CONTINUOUS
 62
     7
 10
230.02554399999991
 20
140.90410600000001
 30
0.0
 11
230.04753299999999
 21
140.99790300000001
 31
0.0
  0
LINE
  5
318
  8
1
  6
CONTINUOUS
 62
     7
 10
230.04753299999999
 20
140.99790300000001
 30
0.0
 11
230.08324099999999
 21
141.0843459999999
 31
0.0
  0
LINE
  5
319
  8
1
  6
CONTINUOUS
 62
     7
 10
230.08324099999999
 20
141.0843459999999
 30
0.0
 11
230.13129699999999
 21
141.16011399999991
 31
0.0
  0
LINE
  5
31A
  8
1
  6
CONTINUOUS
 62
     7
 10
230.13129699999999
 20
141.16011399999991
 30
0.0
 11
230.18985199999989
 21
141.222296
 31
0.0
  0
LINE
  5
31B
  8
1
  6
CONTINUOUS
 62
     7
 10
230.18985199999989
 20
141.222296
 30
0.0
 11
230.25665799999999
 21
141.26850099999999
 31
0.0
  0
LINE
  5
31C
  8
1
  6
CONTINUOUS
 62
     7
 10
230.25665799999999
 20
141.26850099999999
 30
0.0
 11
230.32914600000001
 21
141.29695399999989
 31
0.0
  0
LINE
  5
31D
  8
1
  6
CONTINUOUS
 62
     7
 10
230.32914600000001
 20
141.29695399999989
 30
0.0
 11
230.4045319999999
 21
141.30656099999999
 31
0.0
  0
LINE
  5
31E
  8
1
  6
CONTINUOUS
 62
     7
 10
228.96851000000001
 20
118.5827289999999
 30
0.0
 11
229.0580359999999
 21
118.6764629999999
 31
0.0
  0
LINE
  5
31F
  8
1
  6
CONTINUOUS
 62
     7
 10
229.0580359999999
 20
118.6764629999999
 30
0.0
 11
229.1443459999999
 21
118.7658909999999
 31
0.0
  0
LINE
  5
320
  8
1
  6
CONTINUOUS
 62
     7
 10
229.1443459999999
 20
118.7658909999999
 30
0.0
 11
229.2243399999999
 21
118.84780000000001
 31
0.0
  0
LINE
  5
321
  8
1
  6
CONTINUOUS
 62
     7
 10
229.2243399999999
 20
118.84780000000001
 30
0.0
 11
229.2951459999999
 21
118.9192479999999
 31
0.0
  0
LINE
  5
322
  8
1
  6
CONTINUOUS
 62
     7
 10
229.2951459999999
 20
118.9192479999999
 30
0.0
 11
229.354219
 21
118.9776699999999
 31
0.0
  0
LINE
  5
323
  8
1
  6
CONTINUOUS
 62
     7
 10
229.354219
 20
118.9776699999999
 30
0.0
 11
229.39943899999989
 21
119.0209659999999
 31
0.0
  0
LINE
  5
324
  8
1
  6
CONTINUOUS
 62
     7
 10
229.39943899999989
 20
119.0209659999999
 30
0.0
 11
229.429181
 21
119.04758200000001
 31
0.0
  0
LINE
  5
325
  8
1
  6
CONTINUOUS
 62
     7
 10
229.429181
 20
119.04758200000001
 30
0.0
 11
229.44237599999991
 21
119.056561
 31
0.0
  0
LINE
  5
326
  8
1
  6
CONTINUOUS
 62
     7
 10
200.14360899999991
 20
119.056561
 30
0.0
 11
200.15680399999991
 21
119.04758200000001
 31
0.0
  0
LINE
  5
327
  8
1
  6
CONTINUOUS
 62
     7
 10
200.15680399999991
 20
119.04758200000001
 30
0.0
 11
200.18654599999991
 21
119.0209659999999
 31
0.0
  0
LINE
  5
328
  8
1
  6
CONTINUOUS
 62
     7
 10
200.18654599999991
 20
119.0209659999999
 30
0.0
 11
200.23176599999999
 21
118.9776699999999
 31
0.0
  0
LINE
  5
329
  8
1
  6
CONTINUOUS
 62
     7
 10
200.23176599999999
 20
118.9776699999999
 30
0.0
 11
200.29083899999989
 21
118.9192479999999
 31
0.0
  0
LINE
  5
32A
  8
1
  6
CONTINUOUS
 62
     7
 10
200.29083899999989
 20
118.9192479999999
 30
0.0
 11
200.3616449999999
 21
118.84780000000001
 31
0.0
  0
LINE
  5
32B
  8
1
  6
CONTINUOUS
 62
     7
 10
200.3616449999999
 20
118.84780000000001
 30
0.0
 11
200.4416389999999
 21
118.7658909999999
 31
0.0
  0
LINE
  5
32C
  8
1
  6
CONTINUOUS
 62
     7
 10
200.4416389999999
 20
118.7658909999999
 30
0.0
 11
200.52794899999989
 21
118.6764629999999
 31
0.0
  0
LINE
  5
32D
  8
1
  6
CONTINUOUS
 62
     7
 10
200.52794899999989
 20
118.6764629999999
 30
0.0
 11
200.61747500000001
 21
118.5827289999999
 31
0.0
  0
LINE
  5
32E
  8
1
  6
CONTINUOUS
 62
     7
 10
228.61066099999999
 20
135.95656099999999
 30
0.0
 11
228.2013399999999
 21
136.04700899999989
 31
0.0
  0
LINE
  5
32F
  8
1
  6
CONTINUOUS
 62
     7
 10
228.2013399999999
 20
136.04700899999989
 30
0.0
 11
227.85428899999999
 21
136.155811
 31
0.0
  0
LINE
  5
330
  8
1
  6
CONTINUOUS
 62
     7
 10
227.85428899999999
 20
136.155811
 30
0.0
 11
227.8191259999999
 21
136.175376
 31
0.0
  0
LINE
  5
331
  8
1
  6
CONTINUOUS
 62
     7
 10
227.8191259999999
 20
136.175376
 30
0.0
 11
227.80927500000001
 21
136.1848939999999
 31
0.0
  0
LINE
  5
332
  8
1
  6
CONTINUOUS
 62
     7
 10
227.80927500000001
 20
136.1848939999999
 30
0.0
 11
227.80785599999999
 21
136.19314
 31
0.0
  0
LINE
  5
333
  8
1
  6
CONTINUOUS
 62
     7
 10
227.80785599999999
 20
136.19314
 30
0.0
 11
227.8123249999999
 21
136.1977479999999
 31
0.0
  0
LINE
  5
334
  8
1
  6
CONTINUOUS
 62
     7
 10
227.8123249999999
 20
136.1977479999999
 30
0.0
 11
227.822191
 21
136.20165800000001
 31
0.0
  0
LINE
  5
335
  8
1
  6
CONTINUOUS
 62
     7
 10
227.822191
 20
136.20165800000001
 30
0.0
 11
227.83455799999999
 21
136.20407599999999
 31
0.0
  0
LINE
  5
336
  8
1
  6
CONTINUOUS
 62
     7
 10
227.83455799999999
 20
136.20407599999999
 30
0.0
 11
227.85820499999991
 21
136.20610300000001
 31
0.0
  0
LINE
  5
337
  8
1
  6
CONTINUOUS
 62
     7
 10
227.85820499999991
 20
136.20610300000001
 30
0.0
 11
227.8807809999999
 21
136.20656099999999
 31
0.0
  0
LINE
  5
338
  8
1
  6
CONTINUOUS
 62
     7
 10
232.49299300000001
 20
135.57418100000001
 30
0.0
 11
231.26070699999991
 21
135.613044
 31
0.0
  0
LINE
  5
339
  8
1
  6
CONTINUOUS
 62
     7
 10
231.26070699999991
 20
135.613044
 30
0.0
 11
230.02842100000001
 21
135.72917200000001
 31
0.0
  0
LINE
  5
33A
  8
1
  6
CONTINUOUS
 62
     7
 10
230.02842100000001
 20
135.72917200000001
 30
0.0
 11
228.61066099999999
 21
135.95656099999999
 31
0.0
  0
LINE
  5
33B
  8
1
  6
CONTINUOUS
 62
     7
 10
227.301863
 20
136.20603799999989
 30
0.0
 11
226.18717599999991
 21
136.52440200000001
 31
0.0
  0
LINE
  5
33C
  8
1
  6
CONTINUOUS
 62
     7
 10
226.18717599999991
 20
136.52440200000001
 30
0.0
 11
225.34771699999999
 21
136.80113899999989
 31
0.0
  0
LINE
  5
33D
  8
1
  6
CONTINUOUS
 62
     7
 10
225.34771699999999
 20
136.80113899999989
 30
0.0
 11
224.82225699999989
 21
136.98966699999991
 31
0.0
  0
LINE
  5
33E
  8
1
  6
CONTINUOUS
 62
     7
 10
224.82225699999989
 20
136.98966699999991
 30
0.0
 11
224.64299299999999
 21
137.05656099999999
 31
0.0
  0
LINE
  5
33F
  8
1
  6
CONTINUOUS
 62
     7
 10
203.04299299999991
 20
131.78463099999999
 30
0.0
 11
202.71199399999989
 21
131.82192599999999
 31
0.0
  0
LINE
  5
340
  8
1
  6
CONTINUOUS
 62
     7
 10
202.71199399999989
 20
131.82192599999999
 30
0.0
 11
202.41831099999999
 21
131.928968
 31
0.0
  0
LINE
  5
341
  8
1
  6
CONTINUOUS
 62
     7
 10
202.41831099999999
 20
131.928968
 30
0.0
 11
202.19508500000001
 21
132.09202999999999
 31
0.0
  0
LINE
  5
342
  8
1
  6
CONTINUOUS
 62
     7
 10
202.19508500000001
 20
132.09202999999999
 30
0.0
 11
202.0674689999999
 21
132.2906889999999
 31
0.0
  0
LINE
  5
343
  8
1
  6
CONTINUOUS
 62
     7
 10
202.0674689999999
 20
132.2906889999999
 30
0.0
 11
202.042993
 21
132.42940899999999
 31
0.0
  0
LINE
  5
344
  8
1
  6
CONTINUOUS
 62
     7
 10
222.042993
 20
132.42940899999999
 30
0.0
 11
221.986718
 21
132.22011399999991
 31
0.0
  0
LINE
  5
345
  8
1
  6
CONTINUOUS
 62
     7
 10
221.986718
 20
132.22011399999991
 30
0.0
 11
221.82410899999991
 21
132.03100499999999
 31
0.0
  0
LINE
  5
346
  8
1
  6
CONTINUOUS
 62
     7
 10
221.82410899999991
 20
132.03100499999999
 30
0.0
 11
221.573599
 21
131.88518799999991
 31
0.0
  0
LINE
  5
347
  8
1
  6
CONTINUOUS
 62
     7
 10
221.573599
 20
131.88518799999991
 30
0.0
 11
221.26325
 21
131.80089299999989
 31
0.0
  0
LINE
  5
348
  8
1
  6
CONTINUOUS
 62
     7
 10
221.26325
 20
131.80089299999989
 30
0.0
 11
221.042993
 21
131.78463099999999
 31
0.0
  0
LINE
  5
349
  8
1
  6
CONTINUOUS
 62
     7
 10
222.68682999999999
 20
137.04454799999991
 30
0.0
 11
222.65462599999989
 21
137.04422600000001
 31
0.0
  0
LINE
  5
34A
  8
1
  6
CONTINUOUS
 62
     7
 10
222.65462599999989
 20
137.04422600000001
 30
0.0
 11
222.6211099999999
 21
137.044286
 31
0.0
  0
LINE
  5
34B
  8
1
  6
CONTINUOUS
 62
     7
 10
222.6211099999999
 20
137.044286
 30
0.0
 11
222.59006400000001
 21
137.0447179999999
 31
0.0
  0
LINE
  5
34C
  8
1
  6
CONTINUOUS
 62
     7
 10
222.59006400000001
 20
137.0447179999999
 30
0.0
 11
222.564975
 21
137.045455
 31
0.0
  0
LINE
  5
34D
  8
1
  6
CONTINUOUS
 62
     7
 10
222.564975
 20
137.045455
 30
0.0
 11
222.5486689999999
 21
137.04638899999989
 31
0.0
  0
LINE
  5
34E
  8
1
  6
CONTINUOUS
 62
     7
 10
222.5486689999999
 20
137.04638899999989
 30
0.0
 11
222.542993
 21
137.0473969999999
 31
0.0
  0
LINE
  5
34F
  8
1
  6
CONTINUOUS
 62
     7
 10
223.9587129999999
 20
137.05636899999999
 30
0.0
 11
223.32268199999999
 21
137.05274900000001
 31
0.0
  0
LINE
  5
350
  8
1
  6
CONTINUOUS
 62
     7
 10
223.32268199999999
 20
137.05274900000001
 30
0.0
 11
222.68682999999999
 21
137.04454799999991
 31
0.0
  0
LINE
  5
351
  8
1
  6
CONTINUOUS
 62
     7
 10
224.01365699999999
 20
137.056555
 30
0.0
 11
224.0121859999999
 21
137.05654799999999
 31
0.0
  0
LINE
  5
352
  8
1
  6
CONTINUOUS
 62
     7
 10
224.0121859999999
 20
137.05654799999999
 30
0.0
 11
223.999075
 21
137.05649199999991
 31
0.0
  0
LINE
  5
353
  8
1
  6
CONTINUOUS
 62
     7
 10
223.999075
 20
137.05649199999991
 30
0.0
 11
223.976471
 21
137.05641299999991
 31
0.0
  0
LINE
  5
354
  8
1
  6
CONTINUOUS
 62
     7
 10
223.976471
 20
137.05641299999991
 30
0.0
 11
223.9587129999999
 21
137.05636899999999
 31
0.0
  0
LINE
  5
355
  8
1
  6
CONTINUOUS
 62
     7
 10
228.3672259999999
 20
130.37055899999999
 30
0.0
 11
228.5753729999999
 21
130.345054
 31
0.0
  0
LINE
  5
356
  8
1
  6
CONTINUOUS
 62
     7
 10
228.5753729999999
 20
130.345054
 30
0.0
 11
228.74561700000001
 21
130.262833
 31
0.0
  0
LINE
  5
357
  8
1
  6
CONTINUOUS
 62
     7
 10
228.74561700000001
 20
130.262833
 30
0.0
 11
228.83194700000001
 21
130.1670499999999
 31
0.0
  0
LINE
  5
358
  8
1
  6
CONTINUOUS
 62
     7
 10
228.83194700000001
 20
130.1670499999999
 30
0.0
 11
228.86654100000001
 21
130.05591799999999
 31
0.0
  0
LINE
  5
359
  8
1
  6
CONTINUOUS
 62
     7
 10
196.121903
 20
118.808792
 30
0.0
 11
196.07549399999991
 21
118.7338899999999
 31
0.0
  0
LINE
  5
35A
  8
1
  6
CONTINUOUS
 62
     7
 10
196.07549399999991
 20
118.7338899999999
 30
0.0
 11
196.042993
 21
118.556561
 31
0.0
  0
LINE
  5
35B
  8
1
  6
CONTINUOUS
 62
     7
 10
213.792993
 20
136.90656100000001
 30
0.0
 11
213.849288
 21
136.90393700000001
 31
0.0
  0
LINE
  5
35C
  8
1
  6
CONTINUOUS
 62
     7
 10
213.849288
 20
136.90393700000001
 30
0.0
 11
214.01179500000001
 21
136.89721299999991
 31
0.0
  0
LINE
  5
35D
  8
1
  6
CONTINUOUS
 62
     7
 10
214.01179500000001
 20
136.89721299999991
 30
0.0
 11
214.26240899999991
 21
136.88932399999999
 31
0.0
  0
LINE
  5
35E
  8
1
  6
CONTINUOUS
 62
     7
 10
214.26240899999991
 20
136.88932399999999
 30
0.0
 11
214.57301799999999
 21
136.88372799999991
 31
0.0
  0
LINE
  5
35F
  8
1
  6
CONTINUOUS
 62
     7
 10
214.57301799999999
 20
136.88372799999991
 30
0.0
 11
214.792993
 21
136.88256599999991
 31
0.0
  0
LINE
  5
360
  8
1
  6
CONTINUOUS
 62
     7
 10
214.792993
 20
136.88256599999991
 30
0.0
 11
215.12378199999989
 21
136.8851929999999
 31
0.0
  0
LINE
  5
361
  8
1
  6
CONTINUOUS
 62
     7
 10
215.12378199999989
 20
136.8851929999999
 30
0.0
 11
215.4172759999999
 21
136.891921
 31
0.0
  0
LINE
  5
362
  8
1
  6
CONTINUOUS
 62
     7
 10
215.4172759999999
 20
136.891921
 30
0.0
 11
215.64062499999989
 21
136.899809
 31
0.0
  0
LINE
  5
363
  8
1
  6
CONTINUOUS
 62
     7
 10
215.64062499999989
 20
136.899809
 30
0.0
 11
215.76849799999991
 21
136.90540100000001
 31
0.0
  0
LINE
  5
364
  8
1
  6
CONTINUOUS
 62
     7
 10
215.76849799999991
 20
136.90540100000001
 30
0.0
 11
215.792993
 21
136.90656100000001
 31
0.0
  0
LINE
  5
365
  8
1
  6
CONTINUOUS
 62
     7
 10
215.792993
 20
136.90656100000001
 30
0.0
 11
215.76203899999999
 21
136.9051179999999
 31
0.0
  0
LINE
  5
366
  8
1
  6
CONTINUOUS
 62
     7
 10
233.48981900000001
 20
134.47530199999991
 30
0.0
 11
233.410043
 21
134.61453499999999
 31
0.0
  0
LINE
  5
367
  8
1
  6
CONTINUOUS
 62
     7
 10
233.410043
 20
134.61453499999999
 30
0.0
 11
233.290347
 21
134.754638
 31
0.0
  0
LINE
  5
368
  8
1
  6
CONTINUOUS
 62
     7
 10
233.290347
 20
134.754638
 30
0.0
 11
233.042993
 21
134.9245389999999
 31
0.0
  0
LINE
  5
369
  8
1
  6
CONTINUOUS
 62
     7
 10
233.48981800000001
 20
134.47530199999991
 30
0.0
 11
233.54094199999989
 21
134.273495
 31
0.0
  0
LINE
  5
36A
  8
1
  6
CONTINUOUS
 62
     7
 10
233.54094199999989
 20
134.273495
 30
0.0
 11
233.542993
 21
134.22246299999989
 31
0.0
  0
LINE
  5
36B
  8
1
  6
CONTINUOUS
 62
     7
 10
235.59299300000001
 20
132.7990969999999
 30
0.0
 11
235.74285299999991
 21
132.812119
 31
0.0
  0
LINE
  5
36C
  8
1
  6
CONTINUOUS
 62
     7
 10
235.74285299999991
 20
132.812119
 30
0.0
 11
235.87547699999999
 21
132.84841299999991
 31
0.0
  0
LINE
  5
36D
  8
1
  6
CONTINUOUS
 62
     7
 10
235.87547699999999
 20
132.84841299999991
 30
0.0
 11
235.9848519999999
 21
132.90518099999991
 31
0.0
  0
LINE
  5
36E
  8
1
  6
CONTINUOUS
 62
     7
 10
235.9848519999999
 20
132.90518099999991
 30
0.0
 11
236.06365899999989
 21
132.98277400000001
 31
0.0
  0
LINE
  5
36F
  8
1
  6
CONTINUOUS
 62
     7
 10
236.06365899999989
 20
132.98277400000001
 30
0.0
 11
236.09299300000001
 21
133.0730969999999
 31
0.0
  0
LINE
  5
370
  8
1
  6
CONTINUOUS
 62
     7
 10
236.09299300000001
 20
135.23174
 30
0.0
 11
236.0604799999999
 21
135.353904
 31
0.0
  0
LINE
  5
371
  8
1
  6
CONTINUOUS
 62
     7
 10
236.0604799999999
 20
135.353904
 30
0.0
 11
235.962165
 21
135.46335500000001
 31
0.0
  0
LINE
  5
372
  8
1
  6
CONTINUOUS
 62
     7
 10
235.962165
 20
135.46335500000001
 30
0.0
 11
235.88523399999991
 21
135.51002800000001
 31
0.0
  0
LINE
  5
373
  8
1
  6
CONTINUOUS
 62
     7
 10
235.88523399999991
 20
135.51002800000001
 30
0.0
 11
235.8002029999999
 21
135.5436379999999
 31
0.0
  0
LINE
  5
374
  8
1
  6
CONTINUOUS
 62
     7
 10
235.8002029999999
 20
135.5436379999999
 30
0.0
 11
235.69824199999999
 21
135.56654399999991
 31
0.0
  0
LINE
  5
375
  8
1
  6
CONTINUOUS
 62
     7
 10
235.69824199999999
 20
135.56654399999991
 30
0.0
 11
235.59299300000001
 21
135.57418100000001
 31
0.0
  0
LINE
  5
376
  8
1
  6
CONTINUOUS
 62
     7
 10
235.59299300000001
 20
132.655224
 30
0.0
 11
235.742637
 21
132.66832099999991
 31
0.0
  0
LINE
  5
377
  8
1
  6
CONTINUOUS
 62
     7
 10
235.742637
 20
132.66832099999991
 30
0.0
 11
235.8750609999999
 21
132.70480599999999
 31
0.0
  0
LINE
  5
378
  8
1
  6
CONTINUOUS
 62
     7
 10
235.8750609999999
 20
132.70480599999999
 30
0.0
 11
235.98437300000001
 21
132.761887
 31
0.0
  0
LINE
  5
379
  8
1
  6
CONTINUOUS
 62
     7
 10
235.98437300000001
 20
132.761887
 30
0.0
 11
236.06335999999999
 21
132.840022
 31
0.0
  0
LINE
  5
37A
  8
1
  6
CONTINUOUS
 62
     7
 10
236.06335999999999
 20
132.840022
 30
0.0
 11
236.09299300000001
 21
132.93156099999999
 31
0.0
  0
LINE
  5
37B
  8
1
  6
CONTINUOUS
 62
     7
 10
239.69323799999989
 20
111.52797700000001
 30
0.0
 11
239.69430299999999
 21
111.70733299999991
 31
0.0
  0
LINE
  5
37C
  8
1
  6
CONTINUOUS
 62
     7
 10
239.69430299999999
 20
111.70733299999991
 30
0.0
 11
239.69339099999999
 21
111.7653769999999
 31
0.0
  0
LINE
  5
37D
  8
1
  6
CONTINUOUS
 62
     7
 10
239.69339099999999
 20
111.7653769999999
 30
0.0
 11
239.69339099999999
 21
111.7653269999999
 31
0.0
  0
LINE
  5
37E
  8
1
  6
CONTINUOUS
 62
     7
 10
229.89658799999989
 20
137.05656099999999
 30
0.0
 11
229.90015199999999
 21
137.105334
 31
0.0
  0
LINE
  5
37F
  8
1
  6
CONTINUOUS
 62
     7
 10
229.90015199999999
 20
137.105334
 30
0.0
 11
229.91070499999989
 21
137.15223199999991
 31
0.0
  0
LINE
  5
380
  8
1
  6
CONTINUOUS
 62
     7
 10
229.91070499999989
 20
137.15223199999991
 30
0.0
 11
229.92784399999999
 21
137.19545400000001
 31
0.0
  0
LINE
  5
381
  8
1
  6
CONTINUOUS
 62
     7
 10
229.92784399999999
 20
137.19545400000001
 30
0.0
 11
229.95090799999991
 21
137.23333799999989
 31
0.0
  0
LINE
  5
382
  8
1
  6
CONTINUOUS
 62
     7
 10
229.95090799999991
 20
137.23333799999989
 30
0.0
 11
229.9790109999999
 21
137.26442800000001
 31
0.0
  0
LINE
  5
383
  8
1
  6
CONTINUOUS
 62
     7
 10
229.9790109999999
 20
137.26442800000001
 30
0.0
 11
230.01107400000001
 21
137.28753099999989
 31
0.0
  0
LINE
  5
384
  8
1
  6
CONTINUOUS
 62
     7
 10
230.01107400000001
 20
137.28753099999989
 30
0.0
 11
230.04586499999991
 21
137.30175700000001
 31
0.0
  0
LINE
  5
385
  8
1
  6
CONTINUOUS
 62
     7
 10
230.04586499999991
 20
137.30175700000001
 30
0.0
 11
230.08204599999999
 21
137.30656099999999
 31
0.0
  0
LINE
  5
386
  8
1
  6
CONTINUOUS
 62
     7
 10
232.316216
 20
140.80656099999999
 30
0.0
 11
232.32300900000001
 21
140.90410600000001
 31
0.0
  0
LINE
  5
387
  8
1
  6
CONTINUOUS
 62
     7
 10
232.32300900000001
 20
140.90410600000001
 30
0.0
 11
232.343129
 21
140.99790300000001
 31
0.0
  0
LINE
  5
388
  8
1
  6
CONTINUOUS
 62
     7
 10
232.343129
 20
140.99790300000001
 30
0.0
 11
232.3758
 21
141.0843459999999
 31
0.0
  0
LINE
  5
389
  8
1
  6
CONTINUOUS
 62
     7
 10
232.3758
 20
141.0843459999999
 30
0.0
 11
232.419769
 21
141.16011399999991
 31
0.0
  0
LINE
  5
38A
  8
1
  6
CONTINUOUS
 62
     7
 10
232.419769
 20
141.16011399999991
 30
0.0
 11
232.47334599999999
 21
141.222296
 31
0.0
  0
LINE
  5
38B
  8
1
  6
CONTINUOUS
 62
     7
 10
232.47334599999999
 20
141.222296
 30
0.0
 11
232.53447
 21
141.26850099999999
 31
0.0
  0
LINE
  5
38C
  8
1
  6
CONTINUOUS
 62
     7
 10
232.53447
 20
141.26850099999999
 30
0.0
 11
232.60079400000001
 21
141.29695399999989
 31
0.0
  0
LINE
  5
38D
  8
1
  6
CONTINUOUS
 62
     7
 10
232.60079400000001
 20
141.29695399999989
 30
0.0
 11
232.669769
 21
141.30656099999999
 31
0.0
  0
LINE
  5
38E
  8
1
  6
CONTINUOUS
 62
     7
 10
224.99084099999999
 20
137.05656099999999
 30
0.0
 11
224.99555199999989
 21
137.105334
 31
0.0
  0
LINE
  5
38F
  8
1
  6
CONTINUOUS
 62
     7
 10
224.99555199999989
 20
137.105334
 30
0.0
 11
225.00950399999999
 21
137.15223199999991
 31
0.0
  0
LINE
  5
390
  8
1
  6
CONTINUOUS
 62
     7
 10
225.00950399999999
 20
137.15223199999991
 30
0.0
 11
225.03215999999989
 21
137.19545400000001
 31
0.0
  0
LINE
  5
391
  8
1
  6
CONTINUOUS
 62
     7
 10
225.03215999999989
 20
137.19545400000001
 30
0.0
 11
225.06264999999999
 21
137.23333799999989
 31
0.0
  0
LINE
  5
392
  8
1
  6
CONTINUOUS
 62
     7
 10
225.06264999999999
 20
137.23333799999989
 30
0.0
 11
225.09980200000001
 21
137.26442800000001
 31
0.0
  0
LINE
  5
393
  8
1
  6
CONTINUOUS
 62
     7
 10
225.09980200000001
 20
137.26442800000001
 30
0.0
 11
225.14218799999989
 21
137.28753099999989
 31
0.0
  0
LINE
  5
394
  8
1
  6
CONTINUOUS
 62
     7
 10
225.14218799999989
 20
137.28753099999989
 30
0.0
 11
225.18817999999999
 21
137.30175700000001
 31
0.0
  0
LINE
  5
395
  8
1
  6
CONTINUOUS
 62
     7
 10
225.18817999999999
 20
137.30175700000001
 30
0.0
 11
225.23600999999999
 21
137.30656099999999
 31
0.0
  0
LINE
  5
396
  8
1
  6
CONTINUOUS
 62
     7
 10
228.07150599999991
 20
140.80656099999999
 30
0.0
 11
228.07943499999999
 21
140.90410600000001
 31
0.0
  0
LINE
  5
397
  8
1
  6
CONTINUOUS
 62
     7
 10
228.07943499999999
 20
140.90410600000001
 30
0.0
 11
228.10291799999999
 21
140.99790300000001
 31
0.0
  0
LINE
  5
398
  8
1
  6
CONTINUOUS
 62
     7
 10
228.10291799999999
 20
140.99790300000001
 30
0.0
 11
228.14105099999989
 21
141.0843459999999
 31
0.0
  0
LINE
  5
399
  8
1
  6
CONTINUOUS
 62
     7
 10
228.14105099999989
 20
141.0843459999999
 30
0.0
 11
228.19237000000001
 21
141.16011399999991
 31
0.0
  0
LINE
  5
39A
  8
1
  6
CONTINUOUS
 62
     7
 10
228.19237000000001
 20
141.16011399999991
 30
0.0
 11
228.25490199999999
 21
141.222296
 31
0.0
  0
LINE
  5
39B
  8
1
  6
CONTINUOUS
 62
     7
 10
228.25490199999999
 20
141.222296
 30
0.0
 11
228.326244
 21
141.26850099999999
 31
0.0
  0
LINE
  5
39C
  8
1
  6
CONTINUOUS
 62
     7
 10
228.326244
 20
141.26850099999999
 30
0.0
 11
228.4036549999999
 21
141.29695399999989
 31
0.0
  0
LINE
  5
39D
  8
1
  6
CONTINUOUS
 62
     7
 10
228.4036549999999
 20
141.29695399999989
 30
0.0
 11
228.48416
 21
141.30656099999999
 31
0.0
  0
LINE
  5
39E
  8
1
  6
CONTINUOUS
 62
     7
 10
233.51961900000001
 20
118.5616149999999
 30
0.0
 11
233.5135249999999
 21
118.562932
 31
0.0
  0
LINE
  5
39F
  8
1
  6
CONTINUOUS
 62
     7
 10
233.5135249999999
 20
118.562932
 30
0.0
 11
233.44108199999991
 21
118.568175
 31
0.0
  0
LINE
  5
3A0
  8
1
  6
CONTINUOUS
 62
     7
 10
233.44108199999991
 20
118.568175
 30
0.0
 11
233.25009900000001
 21
118.5750649999999
 31
0.0
  0
LINE
  5
3A1
  8
1
  6
CONTINUOUS
 62
     7
 10
233.25009900000001
 20
118.5750649999999
 30
0.0
 11
233.09183899999999
 21
118.578453
 31
0.0
  0
LINE
  5
3A2
  8
1
  6
CONTINUOUS
 62
     7
 10
233.09183899999999
 20
118.578453
 30
0.0
 11
232.91571999999999
 21
118.58087399999989
 31
0.0
  0
LINE
  5
3A3
  8
1
  6
CONTINUOUS
 62
     7
 10
232.91571999999999
 20
118.58087399999989
 30
0.0
 11
232.542993
 21
118.5827289999999
 31
0.0
  0
LINE
  5
3A4
  8
1
  6
CONTINUOUS
 62
     7
 10
197.042993
 20
118.5827289999999
 30
0.0
 11
196.67026899999991
 21
118.58087399999989
 31
0.0
  0
LINE
  5
3A5
  8
1
  6
CONTINUOUS
 62
     7
 10
196.67026899999991
 20
118.58087399999989
 30
0.0
 11
196.494148
 21
118.578453
 31
0.0
  0
LINE
  5
3A6
  8
1
  6
CONTINUOUS
 62
     7
 10
196.494148
 20
118.578453
 30
0.0
 11
196.33588599999999
 21
118.5750649999999
 31
0.0
  0
LINE
  5
3A7
  8
1
  6
CONTINUOUS
 62
     7
 10
196.33588599999999
 20
118.5750649999999
 30
0.0
 11
196.14490900000001
 21
118.568175
 31
0.0
  0
LINE
  5
3A8
  8
1
  6
CONTINUOUS
 62
     7
 10
196.14490900000001
 20
118.568175
 30
0.0
 11
196.07246299999991
 21
118.562932
 31
0.0
  0
LINE
  5
3A9
  8
1
  6
CONTINUOUS
 62
     7
 10
196.07246299999991
 20
118.562932
 30
0.0
 11
196.066869
 21
118.561723
 31
0.0
  0
LINE
  5
3AA
  8
1
  6
CONTINUOUS
 62
     7
 10
229.018304
 20
127.16010300000001
 30
0.0
 11
228.979904
 21
127.1680879999999
 31
0.0
  0
LINE
  5
3AB
  8
1
  6
CONTINUOUS
 62
     7
 10
228.979904
 20
127.1680879999999
 30
0.0
 11
228.87157599999989
 21
127.17089199999999
 31
0.0
  0
LINE
  5
3AC
  8
1
  6
CONTINUOUS
 62
     7
 10
228.87157599999989
 20
127.17089199999999
 30
0.0
 11
228.70975300000001
 21
127.1680879999999
 31
0.0
  0
LINE
  5
3AD
  8
1
  6
CONTINUOUS
 62
     7
 10
228.70975300000001
 20
127.1680879999999
 30
0.0
 11
228.518989
 21
127.16010300000001
 31
0.0
  0
LINE
  5
3AE
  8
1
  6
CONTINUOUS
 62
     7
 10
201.0669959999999
 20
127.16010300000001
 30
0.0
 11
200.87623199999999
 21
127.1680879999999
 31
0.0
  0
LINE
  5
3AF
  8
1
  6
CONTINUOUS
 62
     7
 10
200.87623199999999
 20
127.1680879999999
 30
0.0
 11
200.71440999999999
 21
127.17089199999999
 31
0.0
  0
LINE
  5
3B0
  8
1
  6
CONTINUOUS
 62
     7
 10
200.71440999999999
 20
127.17089199999999
 30
0.0
 11
200.60608099999999
 21
127.1680879999999
 31
0.0
  0
LINE
  5
3B1
  8
1
  6
CONTINUOUS
 62
     7
 10
200.60608099999999
 20
127.1680879999999
 30
0.0
 11
200.56768099999991
 21
127.16010300000001
 31
0.0
  0
LINE
  5
3B2
  8
1
  6
CONTINUOUS
 62
     7
 10
228.518989
 20
127.16010300000001
 30
0.0
 11
228.51243500000001
 21
127.42128599999999
 31
0.0
  0
LINE
  5
3B3
  8
1
  6
CONTINUOUS
 62
     7
 10
201.07355000000001
 20
127.42128599999999
 30
0.0
 11
201.0669959999999
 21
127.16010300000001
 31
0.0
  0
LINE
  5
3B4
  8
1
  6
CONTINUOUS
 62
     7
 10
228.3672259999999
 20
130.37055899999999
 30
0.0
 11
228.48271699999989
 21
131.3814219999999
 31
0.0
  0
LINE
  5
3B5
  8
1
  6
CONTINUOUS
 62
     7
 10
228.48271699999989
 20
131.3814219999999
 30
0.0
 11
228.99492100000001
 21
132.26274100000001
 31
0.0
  0
LINE
  5
3B6
  8
1
  6
CONTINUOUS
 62
     7
 10
228.99492100000001
 20
132.26274100000001
 30
0.0
 11
229.43447499999999
 21
132.62761399999999
 31
0.0
  0
LINE
  5
3B7
  8
1
  6
CONTINUOUS
 62
     7
 10
229.43447499999999
 20
132.62761399999999
 30
0.0
 11
229.966161
 21
132.89409299999991
 31
0.0
  0
LINE
  5
3B8
  8
1
  6
CONTINUOUS
 62
     7
 10
229.966161
 20
132.89409299999991
 30
0.0
 11
230.60440399999999
 21
133.069895
 31
0.0
  0
LINE
  5
3B9
  8
1
  6
CONTINUOUS
 62
     7
 10
230.60440399999999
 20
133.069895
 30
0.0
 11
231.292993
 21
133.13209299999991
 31
0.0
  0
LINE
  5
3BA
  8
1
  6
CONTINUOUS
 62
     7
 10
228.50588099999999
 20
127.660327
 30
0.0
 11
228.43310199999991
 21
129.08300999999989
 31
0.0
  0
LINE
  5
3BB
  8
1
  6
CONTINUOUS
 62
     7
 10
228.43310199999991
 20
129.08300999999989
 30
0.0
 11
228.3672259999999
 21
130.37055899999999
 31
0.0
  0
LINE
  5
3BC
  8
1
  6
CONTINUOUS
 62
     7
 10
201.21875899999989
 20
130.37055899999999
 30
0.0
 11
201.15288399999989
 21
129.08300999999989
 31
0.0
  0
LINE
  5
3BD
  8
1
  6
CONTINUOUS
 62
     7
 10
201.15288399999989
 20
129.08300999999989
 30
0.0
 11
201.08010400000001
 21
127.660327
 31
0.0
  0
LINE
  5
3BE
  8
1
  6
CONTINUOUS
 62
     7
 10
196.544343
 20
132.69404199999991
 30
0.0
 11
197.32808700000001
 21
133.0119029999999
 31
0.0
  0
LINE
  5
3BF
  8
1
  6
CONTINUOUS
 62
     7
 10
197.32808700000001
 20
133.0119029999999
 30
0.0
 11
198.2461669999999
 21
133.13177300000001
 31
0.0
  0
LINE
  5
3C0
  8
1
  6
CONTINUOUS
 62
     7
 10
198.2461669999999
 20
133.13177300000001
 30
0.0
 11
199.1707879999999
 21
133.033298
 31
0.0
  0
LINE
  5
3C1
  8
1
  6
CONTINUOUS
 62
     7
 10
199.1707879999999
 20
133.033298
 30
0.0
 11
199.97405399999991
 21
132.732969
 31
0.0
  0
LINE
  5
3C2
  8
1
  6
CONTINUOUS
 62
     7
 10
199.97405399999991
 20
132.732969
 30
0.0
 11
200.299395
 21
132.523912
 31
0.0
  0
LINE
  5
3C3
  8
1
  6
CONTINUOUS
 62
     7
 10
200.299395
 20
132.523912
 30
0.0
 11
200.58118799999991
 21
132.273651
 31
0.0
  0
LINE
  5
3C4
  8
1
  6
CONTINUOUS
 62
     7
 10
200.58118799999991
 20
132.273651
 30
0.0
 11
200.80085399999999
 21
132.00522000000001
 31
0.0
  0
LINE
  5
3C5
  8
1
  6
CONTINUOUS
 62
     7
 10
200.80085399999999
 20
132.00522000000001
 30
0.0
 11
200.97657699999999
 21
131.70367300000001
 31
0.0
  0
LINE
  5
3C6
  8
1
  6
CONTINUOUS
 62
     7
 10
200.97657699999999
 20
131.70367300000001
 30
0.0
 11
201.18039799999991
 21
131.06021899999999
 31
0.0
  0
LINE
  5
3C7
  8
1
  6
CONTINUOUS
 62
     7
 10
201.18039799999991
 20
131.06021899999999
 30
0.0
 11
201.21875899999989
 21
130.37055899999999
 31
0.0
  0
LINE
  5
3C8
  8
1
  6
CONTINUOUS
 62
     7
 10
201.21875899999989
 20
130.37055899999999
 30
0.0
 11
201.03175399999989
 21
130.3506679999999
 31
0.0
  0
LINE
  5
3C9
  8
1
  6
CONTINUOUS
 62
     7
 10
201.03175399999989
 20
130.3506679999999
 30
0.0
 11
200.87182399999989
 21
130.28473399999999
 31
0.0
  0
LINE
  5
3CA
  8
1
  6
CONTINUOUS
 62
     7
 10
200.87182399999989
 20
130.28473399999999
 30
0.0
 11
200.762945
 21
130.18127899999999
 31
0.0
  0
LINE
  5
3CB
  8
1
  6
CONTINUOUS
 62
     7
 10
200.762945
 20
130.18127899999999
 30
0.0
 11
200.7194439999999
 21
130.05591799999999
 31
0.0
  0
LINE
  5
3CC
  8
1
  6
CONTINUOUS
 62
     7
 10
228.86654100000001
 20
130.05591799999999
 30
0.0
 11
228.98108099999999
 21
131.13532199999989
 31
0.0
  0
LINE
  5
3CD
  8
1
  6
CONTINUOUS
 62
     7
 10
228.98108099999999
 20
131.13532199999989
 30
0.0
 11
229.37445699999989
 21
131.9027669999999
 31
0.0
  0
LINE
  5
3CE
  8
1
  6
CONTINUOUS
 62
     7
 10
229.37445699999989
 20
131.9027669999999
 30
0.0
 11
229.76110600000001
 21
132.27417199999999
 31
0.0
  0
LINE
  5
3CF
  8
1
  6
CONTINUOUS
 62
     7
 10
229.76110600000001
 20
132.27417199999999
 30
0.0
 11
230.22677799999991
 21
132.5394629999999
 31
0.0
  0
LINE
  5
3D0
  8
1
  6
CONTINUOUS
 62
     7
 10
230.22677799999991
 20
132.5394629999999
 30
0.0
 11
230.74661699999999
 21
132.6986389999999
 31
0.0
  0
LINE
  5
3D1
  8
1
  6
CONTINUOUS
 62
     7
 10
230.74661699999999
 20
132.6986389999999
 30
0.0
 11
231.292993
 21
132.75170099999991
 31
0.0
  0
LINE
  5
3D2
  8
1
  6
CONTINUOUS
 62
     7
 10
196.830747
 20
132.32390099999989
 30
0.0
 11
197.50432499999991
 21
132.63939899999991
 31
0.0
  0
LINE
  5
3D3
  8
1
  6
CONTINUOUS
 62
     7
 10
197.50432499999991
 20
132.63939899999991
 30
0.0
 11
197.87473199999999
 21
132.720845
 31
0.0
  0
LINE
  5
3D4
  8
1
  6
CONTINUOUS
 62
     7
 10
197.87473199999999
 20
132.720845
 30
0.0
 11
198.25519299999991
 21
132.7514239999999
 31
0.0
  0
LINE
  5
3D5
  8
1
  6
CONTINUOUS
 62
     7
 10
198.25519299999991
 20
132.7514239999999
 30
0.0
 11
198.63800099999989
 21
132.73097499999989
 31
0.0
  0
LINE
  5
3D6
  8
1
  6
CONTINUOUS
 62
     7
 10
198.63800099999989
 20
132.73097499999989
 30
0.0
 11
199.012542
 21
132.65926699999989
 31
0.0
  0
LINE
  5
3D7
  8
1
  6
CONTINUOUS
 62
     7
 10
199.012542
 20
132.65926699999989
 30
0.0
 11
199.698577
 21
132.362066
 31
0.0
  0
LINE
  5
3D8
  8
1
  6
CONTINUOUS
 62
     7
 10
199.698577
 20
132.362066
 30
0.0
 11
199.95365799999999
 21
132.17134300000001
 31
0.0
  0
LINE
  5
3D9
  8
1
  6
CONTINUOUS
 62
     7
 10
199.95365799999999
 20
132.17134300000001
 30
0.0
 11
200.1806619999999
 21
131.94030299999989
 31
0.0
  0
LINE
  5
3DA
  8
1
  6
CONTINUOUS
 62
     7
 10
200.1806619999999
 20
131.94030299999989
 30
0.0
 11
200.52901900000001
 21
131.3572649999999
 31
0.0
  0
LINE
  5
3DB
  8
1
  6
CONTINUOUS
 62
     7
 10
200.52901900000001
 20
131.3572649999999
 30
0.0
 11
200.644926
 21
130.9890179999999
 31
0.0
  0
LINE
  5
3DC
  8
1
  6
CONTINUOUS
 62
     7
 10
200.644926
 20
130.9890179999999
 30
0.0
 11
200.71270999999999
 21
130.55523500000001
 31
0.0
  0
LINE
  5
3DD
  8
1
  6
CONTINUOUS
 62
     7
 10
200.71270999999999
 20
130.55523500000001
 30
0.0
 11
200.7194439999999
 21
130.05591799999999
 31
0.0
  0
LINE
  5
3DE
  8
1
  6
CONTINUOUS
 62
     7
 10
196.54299299999991
 20
132.69419600000001
 30
0.0
 11
196.62727599999999
 21
132.6266029999999
 31
0.0
  0
LINE
  5
3DF
  8
1
  6
CONTINUOUS
 62
     7
 10
196.62727599999999
 20
132.6266029999999
 30
0.0
 11
196.7065189999999
 21
132.53868399999999
 31
0.0
  0
LINE
  5
3E0
  8
1
  6
CONTINUOUS
 62
     7
 10
196.7065189999999
 20
132.53868399999999
 30
0.0
 11
196.784344
 21
132.4200779999999
 31
0.0
  0
LINE
  5
3E1
  8
1
  6
CONTINUOUS
 62
     7
 10
196.784344
 20
132.4200779999999
 30
0.0
 11
196.8299889999999
 21
132.32422999999989
 31
0.0
  0
LINE
  5
3E2
  8
1
  6
CONTINUOUS
 62
     7
 10
196.8299889999999
 20
132.32422999999989
 30
0.0
 11
196.71588499999999
 21
132.328124
 31
0.0
  0
LINE
  5
3E3
  8
1
  6
CONTINUOUS
 62
     7
 10
196.71588499999999
 20
132.328124
 30
0.0
 11
196.575884
 21
132.32994899999991
 31
0.0
  0
LINE
  5
3E4
  8
1
  6
CONTINUOUS
 62
     7
 10
196.575884
 20
132.32994899999991
 30
0.0
 11
196.43773100000001
 21
132.32930200000001
 31
0.0
  0
LINE
  5
3E5
  8
1
  6
CONTINUOUS
 62
     7
 10
196.43773100000001
 20
132.32930200000001
 30
0.0
 11
196.31223099999991
 21
132.32641099999989
 31
0.0
  0
LINE
  5
3E6
  8
1
  6
CONTINUOUS
 62
     7
 10
196.31223099999991
 20
132.32641099999989
 30
0.0
 11
196.203157
 21
132.32150200000001
 31
0.0
  0
LINE
  5
3E7
  8
1
  6
CONTINUOUS
 62
     7
 10
196.203157
 20
132.32150200000001
 30
0.0
 11
196.11556999999991
 21
132.3146429999999
 31
0.0
  0
LINE
  5
3E8
  8
1
  6
CONTINUOUS
 62
     7
 10
196.11556999999991
 20
132.3146429999999
 30
0.0
 11
196.05881899999989
 21
132.30582100000001
 31
0.0
  0
LINE
  5
3E9
  8
1
  6
CONTINUOUS
 62
     7
 10
196.05881899999989
 20
132.30582100000001
 30
0.0
 11
196.042993
 21
132.29806199999999
 31
0.0
  0
LINE
  5
3EA
  8
1
  6
CONTINUOUS
 62
     7
 10
196.54299299999991
 20
132.69419600000001
 30
0.0
 11
196.44544699999989
 21
132.68658400000001
 31
0.0
  0
LINE
  5
3EB
  8
1
  6
CONTINUOUS
 62
     7
 10
196.44544699999989
 20
132.68658400000001
 30
0.0
 11
196.351651
 21
132.66404199999991
 31
0.0
  0
LINE
  5
3EC
  8
1
  6
CONTINUOUS
 62
     7
 10
196.351651
 20
132.66404199999991
 30
0.0
 11
196.265207
 21
132.62743499999999
 31
0.0
  0
LINE
  5
3ED
  8
1
  6
CONTINUOUS
 62
     7
 10
196.265207
 20
132.62743499999999
 30
0.0
 11
196.18943899999991
 21
132.578171
 31
0.0
  0
LINE
  5
3EE
  8
1
  6
CONTINUOUS
 62
     7
 10
196.18943899999991
 20
132.578171
 30
0.0
 11
196.12725800000001
 21
132.5181419999999
 31
0.0
  0
LINE
  5
3EF
  8
1
  6
CONTINUOUS
 62
     7
 10
196.12725800000001
 20
132.5181419999999
 30
0.0
 11
196.081053
 21
132.449656
 31
0.0
  0
LINE
  5
3F0
  8
1
  6
CONTINUOUS
 62
     7
 10
196.081053
 20
132.449656
 30
0.0
 11
196.05260000000001
 21
132.3753439999999
 31
0.0
  0
LINE
  5
3F1
  8
1
  6
CONTINUOUS
 62
     7
 10
196.05260000000001
 20
132.3753439999999
 30
0.0
 11
196.042993
 21
132.29806199999999
 31
0.0
  0
LINE
  5
3F2
  8
1
  6
CONTINUOUS
 62
     7
 10
233.042993
 20
132.75170099999991
 30
0.0
 11
233.14053799999999
 21
132.7511979999999
 31
0.0
  0
LINE
  5
3F3
  8
1
  6
CONTINUOUS
 62
     7
 10
233.14053799999999
 20
132.7511979999999
 30
0.0
 11
233.2343339999999
 21
132.749709
 31
0.0
  0
LINE
  5
3F4
  8
1
  6
CONTINUOUS
 62
     7
 10
233.2343339999999
 20
132.749709
 30
0.0
 11
233.3207779999999
 21
132.74729099999999
 31
0.0
  0
LINE
  5
3F5
  8
1
  6
CONTINUOUS
 62
     7
 10
233.3207779999999
 20
132.74729099999999
 30
0.0
 11
233.39654599999989
 21
132.74403699999999
 31
0.0
  0
LINE
  5
3F6
  8
1
  6
CONTINUOUS
 62
     7
 10
233.39654599999989
 20
132.74403699999999
 30
0.0
 11
233.45872700000001
 21
132.740071
 31
0.0
  0
LINE
  5
3F7
  8
1
  6
CONTINUOUS
 62
     7
 10
233.45872700000001
 20
132.740071
 30
0.0
 11
233.50493199999991
 21
132.735547
 31
0.0
  0
LINE
  5
3F8
  8
1
  6
CONTINUOUS
 62
     7
 10
233.50493199999991
 20
132.735547
 30
0.0
 11
233.53338500000001
 21
132.730638
 31
0.0
  0
LINE
  5
3F9
  8
1
  6
CONTINUOUS
 62
     7
 10
233.53338500000001
 20
132.730638
 30
0.0
 11
233.542993
 21
132.72553300000001
 31
0.0
  0
LINE
  5
3FA
  8
1
  6
CONTINUOUS
 62
     7
 10
233.042993
 20
133.13209299999991
 30
0.0
 11
233.14053799999999
 21
133.12428099999991
 31
0.0
  0
LINE
  5
3FB
  8
1
  6
CONTINUOUS
 62
     7
 10
233.14053799999999
 20
133.12428099999991
 30
0.0
 11
233.2343339999999
 21
133.101146
 31
0.0
  0
LINE
  5
3FC
  8
1
  6
CONTINUOUS
 62
     7
 10
233.2343339999999
 20
133.101146
 30
0.0
 11
233.3207779999999
 21
133.06357600000001
 31
0.0
  0
LINE
  5
3FD
  8
1
  6
CONTINUOUS
 62
     7
 10
233.3207779999999
 20
133.06357600000001
 30
0.0
 11
233.39654599999989
 21
133.013015
 31
0.0
  0
LINE
  5
3FE
  8
1
  6
CONTINUOUS
 62
     7
 10
233.39654599999989
 20
133.013015
 30
0.0
 11
233.45872700000001
 21
132.95140599999991
 31
0.0
  0
LINE
  5
3FF
  8
1
  6
CONTINUOUS
 62
     7
 10
233.45872700000001
 20
132.95140599999991
 30
0.0
 11
233.50493199999991
 21
132.8811169999999
 31
0.0
  0
LINE
  5
400
  8
1
  6
CONTINUOUS
 62
     7
 10
233.50493199999991
 20
132.8811169999999
 30
0.0
 11
233.53338500000001
 21
132.80484899999999
 31
0.0
  0
LINE
  5
401
  8
1
  6
CONTINUOUS
 62
     7
 10
233.53338500000001
 20
132.80484899999999
 30
0.0
 11
233.542993
 21
132.72553300000001
 31
0.0
  0
LINE
  5
402
  8
1
  6
CONTINUOUS
 62
     7
 10
235.59299300000001
 20
134.9245389999999
 30
0.0
 11
235.69053799999989
 21
134.915907
 31
0.0
  0
LINE
  5
403
  8
1
  6
CONTINUOUS
 62
     7
 10
235.69053799999989
 20
134.915907
 30
0.0
 11
235.78433399999989
 21
134.890343
 31
0.0
  0
LINE
  5
404
  8
1
  6
CONTINUOUS
 62
     7
 10
235.78433399999989
 20
134.890343
 30
0.0
 11
235.87077799999989
 21
134.84882899999991
 31
0.0
  0
LINE
  5
405
  8
1
  6
CONTINUOUS
 62
     7
 10
235.87077799999989
 20
134.84882899999991
 30
0.0
 11
235.94654600000001
 21
134.79295999999999
 31
0.0
  0
LINE
  5
406
  8
1
  6
CONTINUOUS
 62
     7
 10
235.94654600000001
 20
134.79295999999999
 30
0.0
 11
236.00872699999999
 21
134.72488499999989
 31
0.0
  0
LINE
  5
407
  8
1
  6
CONTINUOUS
 62
     7
 10
236.00872699999999
 20
134.72488499999989
 30
0.0
 11
236.05493200000001
 21
134.6472169999999
 31
0.0
  0
LINE
  5
408
  8
1
  6
CONTINUOUS
 62
     7
 10
236.05493200000001
 20
134.6472169999999
 30
0.0
 11
236.08338499999999
 21
134.56294299999999
 31
0.0
  0
LINE
  5
409
  8
1
  6
CONTINUOUS
 62
     7
 10
236.08338499999999
 20
134.56294299999999
 30
0.0
 11
236.09299300000001
 21
134.47530199999991
 31
0.0
  0
LINE
  5
40A
  8
1
  6
CONTINUOUS
 62
     7
 10
242.383962
 20
106.474076
 30
0.0
 11
241.974941
 21
105.806561
 31
0.0
  0
LINE
  5
40B
  8
1
  6
CONTINUOUS
 62
     7
 10
241.974941
 20
106.9683099999999
 30
0.0
 11
242.383962
 21
106.474076
 31
0.0
  0
LINE
  5
40C
  8
1
  6
CONTINUOUS
 62
     7
 10
242.34987699999999
 20
107.4284589999999
 30
0.0
 11
241.974941
 21
106.9683099999999
 31
0.0
  0
LINE
  5
40D
  8
1
  6
CONTINUOUS
 62
     7
 10
241.99198399999989
 20
107.9226929999999
 30
0.0
 11
242.34987699999999
 21
107.4284589999999
 31
0.0
  0
LINE
  5
40E
  8
1
  6
CONTINUOUS
 62
     7
 10
242.33283499999999
 20
108.63848
 30
0.0
 11
241.99198399999989
 21
107.9226929999999
 31
0.0
  0
LINE
  5
40F
  8
1
  6
CONTINUOUS
 62
     7
 10
241.99198399999989
 20
108.99637300000001
 30
0.0
 11
242.33283499999999
 21
108.63848
 31
0.0
  0
LINE
  5
410
  8
1
  6
CONTINUOUS
 62
     7
 10
242.34987699999999
 20
109.6269479999999
 30
0.0
 11
241.99198399999989
 21
108.99637300000001
 31
0.0
  0
LINE
  5
411
  8
1
  6
CONTINUOUS
 62
     7
 10
241.974941
 20
110.070054
 30
0.0
 11
242.34987699999999
 21
109.6269479999999
 31
0.0
  0
LINE
  5
412
  8
1
  6
CONTINUOUS
 62
     7
 10
242.33283499999999
 20
110.47907499999999
 30
0.0
 11
241.974941
 21
110.070054
 31
0.0
  0
LINE
  5
413
  8
1
  6
CONTINUOUS
 62
     7
 10
241.99198399999989
 20
110.956267
 30
0.0
 11
242.33283499999999
 21
110.47907499999999
 31
0.0
  0
LINE
  5
414
  8
1
  6
CONTINUOUS
 62
     7
 10
242.23057900000001
 20
111.306561
 30
0.0
 11
241.99198399999989
 21
110.956267
 31
0.0
  0
LINE
  5
415
  8
1
  6
CONTINUOUS
 62
     7
 10
242.23057900000001
 20
111.306561
 30
0.0
 11
233.542993
 21
111.306561
 31
0.0
  0
LINE
  5
416
  8
1
  6
CONTINUOUS
 62
     7
 10
233.542993
 20
105.806561
 30
0.0
 11
241.974941
 21
105.806561
 31
0.0
  0
LINE
  5
417
  8
1
  6
DASHDOT
 62
     7
 10
128.22084099999989
 20
116.113651
 30
0.0
 11
242.31284500000001
 21
116.113651
 31
0.0
  0
LINE
  5
418
  8
1
  6
CONTINUOUS
 62
     7
 10
196.06240899999989
 20
102.79873600000001
 30
0.0
 11
196.04578100000001
 21
102.93805399999999
 31
0.0
  0
LINE
  5
419
  8
1
  6
CONTINUOUS
 62
     7
 10
197.038735
 20
102.056561
 30
0.0
 11
197.042993
 21
102.056561
 31
0.0
  0
ARC
  5
41A
  8
1
  6
CONTINUOUS
 62
     7
 10
197.038735
 20
103.056561
 30
0.0
 40
1.0
 50
186.805936
 51
270.0
  0
LINE
  5
41B
  8
1
  6
CONTINUOUS
 62
     7
 10
233.542993
 20
103.056561
 30
0.0
 11
233.542993
 21
116.055663
 31
0.0
  0
ARC
  5
41C
  8
1
  6
CONTINUOUS
 62
     7
 10
232.542993
 20
103.056561
 30
0.0
 40
1.0
 50
270.0
 51
0.0
  0
LINE
  5
41D
  8
1
  6
CONTINUOUS
 62
     7
 10
27.213801
 20
92.056561000000002
 30
0.0
 11
269.7392759999999
 21
92.056561000000002
 31
0.0
  0
LINE
  5
41E
  8
1
  6
CONTINUOUS
 62
     7
 10
48.082329000000001
 20
92.056561000000002
 30
0.0
 11
92.082329000000001
 21
92.056561000000002
 31
0.0
  0
LINE
  5
41F
  8
1
  6
CONTINUOUS
 62
     7
 10
91.207442
 20
102.056561
 30
0.0
 11
50.042406999999997
 21
102.056561
 31
0.0
  0
LINE
  5
420
  8
1
  6
DASHDOT
 62
     7
 10
70.082329000000001
 20
151.44606999999991
 30
0.0
 11
70.082329000000001
 21
89.338965999999999
 31
0.0
  0
LINE
  5
421
  8
1
  6
CONTINUOUS
 62
     7
 10
48.082329000000001
 20
92.056561000000002
 30
0.0
 11
48.917284000000002
 21
101.600139
 31
0.0
  0
ARC
  5
422
  8
1
  6
CONTINUOUS
 62
     7
 10
49.415380999999989
 20
101.556561
 30
0.0
 40
0.5
 50
90.0
 51
175.0
  0
LINE
  5
423
  8
1
  6
CONTINUOUS
 62
     7
 10
90.749277000000006
 20
102.056561
 30
0.0
 11
49.415380999999989
 21
102.056561
 31
0.0
  0
LINE
  5
424
  8
1
  6
CONTINUOUS
 62
     7
 10
92.082329000000001
 20
92.056561000000002
 30
0.0
 11
91.247373999999979
 21
101.600139
 31
0.0
  0
ARC
  5
425
  8
1
  6
CONTINUOUS
 62
     7
 10
90.749277000000006
 20
101.556561
 30
0.0
 40
0.5
 50
5.0
 51
90.0
  0
LINE
  5
426
  8
1
  6
DASHDOT
 62
     7
 10
50.832329000000001
 20
96.190229000000002
 30
0.0
 11
50.832329000000001
 21
89.312082999999987
 31
0.0
  0
LINE
  5
427
  8
1
  6
DASHDOT
 62
     7
 10
89.332329000000001
 20
96.293918999999988
 30
0.0
 11
89.332329000000001
 21
91.074824000000007
 31
0.0
  0
LINE
  5
428
  8
1
  6
CONTINUOUS
 62
     7
 10
48.405639999999998
 20
95.752021999999997
 30
0.0
 11
52.528618000000002
 21
94.916433999999995
 31
0.0
  0
LINE
  5
429
  8
1
  6
CONTINUOUS
 62
     7
 10
52.528618000000002
 20
94.916433999999995
 30
0.0
 11
53.236438
 21
92.056561000000002
 31
0.0
  0
LINE
  5
42A
  8
1
  6
CONTINUOUS
 62
     7
 10
91.755154000000005
 20
95.796182000000002
 30
0.0
 11
87.034823000000003
 21
94.916433999999995
 31
0.0
  0
LINE
  5
42B
  8
1
  6
CONTINUOUS
 62
     7
 10
87.034823000000003
 20
94.916433999999995
 30
0.0
 11
86.503958999999995
 21
92.056561000000002
 31
0.0
  0
LINE
  5
42C
  8
1
  6
CONTINUOUS
 62
     7
 10
49.832329000000001
 20
95.467905999999985
 30
0.0
 11
49.832329000000001
 21
92.056561000000002
 31
0.0
  0
LINE
  5
42D
  8
1
  6
CONTINUOUS
 62
     7
 10
51.832329000000001
 20
95.068034999999995
 30
0.0
 11
51.832329000000001
 21
92.056561000000002
 31
0.0
  0
LINE
  5
42E
  8
1
  6
CONTINUOUS
 62
     7
 10
88.332329000000001
 20
95.16006800000001
 30
0.0
 11
88.332329000000001
 21
92.056561000000002
 31
0.0
  0
LINE
  5
42F
  8
1
  6
CONTINUOUS
 62
     7
 10
90.332328999999987
 20
95.552441000000016
 30
0.0
 11
90.332328999999987
 21
92.056561000000002
 31
0.0
  0
LINE
  5
430
  8
1
  6
CONTINUOUS
 62
     7
 10
49.372340000000001
 20
92.056561000000002
 30
0.0
 11
49.832329000000001
 21
92.516549999999995
 31
0.0
  0
LINE
  5
431
  8
1
  6
CONTINUOUS
 62
     7
 10
48.806653999999988
 20
92.056561000000002
 30
0.0
 11
49.832329000000001
 21
93.082234999999997
 31
0.0
  0
LINE
  5
432
  8
1
  6
CONTINUOUS
 62
     7
 10
48.240969
 20
92.056561000000002
 30
0.0
 11
49.832329000000001
 21
93.647920999999997
 31
0.0
  0
LINE
  5
433
  8
1
  6
CONTINUOUS
 62
     7
 10
48.121355000000001
 20
92.502632999999975
 30
0.0
 11
49.832329000000001
 21
94.213605999999984
 31
0.0
  0
LINE
  5
434
  8
1
  6
CONTINUOUS
 62
     7
 10
48.175590999999997
 20
93.122554000000008
 30
0.0
 11
49.832329000000001
 21
94.779291999999998
 31
0.0
  0
LINE
  5
435
  8
1
  6
CONTINUOUS
 62
     7
 10
48.229827
 20
93.742475999999996
 30
0.0
 11
49.832329000000001
 21
95.344977000000014
 31
0.0
  0
LINE
  5
436
  8
1
  6
CONTINUOUS
 62
     7
 10
48.28406300000001
 20
94.362396999999987
 30
0.0
 11
49.460005000000002
 21
95.538337999999996
 31
0.0
  0
LINE
  5
437
  8
1
  6
CONTINUOUS
 62
     7
 10
48.338298999999999
 20
94.982318999999976
 30
0.0
 11
48.989645000000003
 21
95.633663999999996
 31
0.0
  0
LINE
  5
438
  8
1
  6
CONTINUOUS
 62
     7
 10
48.392536
 20
95.602240000000009
 30
0.0
 11
48.519286000000001
 21
95.728989999999996
 31
0.0
  0
LINE
  5
439
  8
1
  6
CONTINUOUS
 62
     7
 10
52.730946000000003
 20
92.056561000000002
 30
0.0
 11
53.136149000000003
 21
92.461765
 31
0.0
  0
LINE
  5
43A
  8
1
  6
CONTINUOUS
 62
     7
 10
52.165259999999989
 20
92.056561000000002
 30
0.0
 11
53.023918999999992
 21
92.915219999999977
 31
0.0
  0
LINE
  5
43B
  8
1
  6
CONTINUOUS
 62
     7
 10
51.832329000000001
 20
92.289314999999988
 30
0.0
 11
52.911689000000003
 21
93.368674999999996
 31
0.0
  0
LINE
  5
43C
  8
1
  6
CONTINUOUS
 62
     7
 10
51.832329000000001
 20
92.855000000000004
 30
0.0
 11
52.799458999999999
 21
93.822130000000001
 31
0.0
  0
LINE
  5
43D
  8
1
  6
CONTINUOUS
 62
     7
 10
51.832329000000001
 20
93.420686000000003
 30
0.0
 11
52.687227999999998
 21
94.275584999999992
 31
0.0
  0
LINE
  5
43E
  8
1
  6
CONTINUOUS
 62
     7
 10
51.832329000000001
 20
93.986371000000005
 30
0.0
 11
52.574998000000001
 21
94.729039999999983
 31
0.0
  0
LINE
  5
43F
  8
1
  6
CONTINUOUS
 62
     7
 10
51.832329000000001
 20
94.552056999999976
 30
0.0
 11
52.252637999999997
 21
94.972365999999994
 31
0.0
  0
LINE
  5
440
  8
1
  6
CONTINUOUS
 62
     7
 10
88.130037999999999
 20
92.056561000000002
 30
0.0
 11
88.332329000000001
 21
92.258852000000005
 31
0.0
  0
LINE
  5
441
  8
1
  6
CONTINUOUS
 62
     7
 10
87.564352999999997
 20
92.056561000000002
 30
0.0
 11
88.332329000000001
 21
92.824537000000007
 31
0.0
  0
LINE
  5
442
  8
1
  6
CONTINUOUS
 62
     7
 10
86.998666999999983
 20
92.056561000000002
 30
0.0
 11
88.332329000000001
 21
93.390222999999992
 31
0.0
  0
LINE
  5
443
  8
1
  6
CONTINUOUS
 62
     7
 10
86.520137000000005
 20
92.143715999999984
 30
0.0
 11
88.332329000000001
 21
93.955907999999994
 31
0.0
  0
LINE
  5
444
  8
1
  6
CONTINUOUS
 62
     7
 10
86.649077000000005
 20
92.838341999999983
 30
0.0
 11
88.332329000000001
 21
94.52159300000001
 31
0.0
  0
LINE
  5
445
  8
1
  6
CONTINUOUS
 62
     7
 10
86.778017000000006
 20
93.532966999999985
 30
0.0
 11
88.332329000000001
 21
95.087279000000024
 31
0.0
  0
LINE
  5
446
  8
1
  6
CONTINUOUS
 62
     7
 10
86.906956999999991
 20
94.227591999999987
 30
0.0
 11
87.724299000000002
 21
95.044934999999995
 31
0.0
  0
LINE
  5
447
  8
1
  6
CONTINUOUS
 62
     7
 10
91.600260000000006
 20
92.056561000000002
 30
0.0
 11
92.043546000000006
 21
92.499847000000003
 31
0.0
  0
LINE
  5
448
  8
1
  6
CONTINUOUS
 62
     7
 10
91.034573999999992
 20
92.056561000000002
 30
0.0
 11
91.998036999999997
 21
93.020022999999995
 31
0.0
  0
LINE
  5
449
  8
1
  6
CONTINUOUS
 62
     7
 10
90.468889000000004
 20
92.056561000000002
 30
0.0
 11
91.952527000000003
 21
93.540199000000001
 31
0.0
  0
LINE
  5
44A
  8
1
  6
CONTINUOUS
 62
     7
 10
90.332328999999987
 20
92.485686000000001
 30
0.0
 11
91.907018000000008
 21
94.060374999999993
 31
0.0
  0
LINE
  5
44B
  8
1
  6
CONTINUOUS
 62
     7
 10
90.332328999999987
 20
93.051372000000001
 30
0.0
 11
91.861508000000001
 21
94.580551000000014
 31
0.0
  0
LINE
  5
44C
  8
1
  6
CONTINUOUS
 62
     7
 10
90.332328999999987
 20
93.617056999999988
 30
0.0
 11
91.815999000000005
 21
95.100727000000006
 31
0.0
  0
LINE
  5
44D
  8
1
  6
CONTINUOUS
 62
     7
 10
90.332328999999987
 20
94.182743000000002
 30
0.0
 11
91.770488999999998
 21
95.620902999999984
 31
0.0
  0
LINE
  5
44E
  8
1
  6
CONTINUOUS
 62
     7
 10
90.332328999999987
 20
94.748428000000004
 30
0.0
 11
91.294167000000002
 21
95.710266000000004
 31
0.0
  0
LINE
  5
44F
  8
1
  6
CONTINUOUS
 62
     7
 10
90.332328999999987
 20
95.314113000000006
 30
0.0
 11
90.598901999999995
 21
95.580686999999983
 31
0.0
  0
LINE
  5
450
  8
1
  6
DASHDOT
 62
     7
 10
54.093975
 20
122.056561
 30
0.0
 11
86.561339999999987
 21
122.056561
 31
0.0
  0
CIRCLE
  5
451
  8
1
  6
CONTINUOUS
 62
     7
 10
70.082329000000001
 20
122.056561
 30
0.0
 40
9.5
  0
CIRCLE
  5
452
  8
1
  6
CONTINUOUS
 62
     7
 10
70.082329000000001
 20
122.056561
 30
0.0
 40
8.5
  0
LINE
  5
453
  8
1
  6
CONTINUOUS
 62
     7
 10
67.961007999999993
 20
129.14921599999991
 30
0.0
 11
72.203648999999984
 21
129.14921599999991
 31
0.0
  0
LINE
  5
454
  8
1
  6
CONTINUOUS
 62
     7
 10
71.832329000000001
 20
130.149216
 30
0.0
 11
71.832329000000001
 21
130.17219900000001
 31
0.0
  0
LINE
  5
455
  8
1
  6
CONTINUOUS
 62
     7
 10
68.332329000000001
 20
130.17219900000001
 30
0.0
 11
68.332329000000001
 21
130.149216
 31
0.0
  0
LINE
  5
456
  8
1
  6
CONTINUOUS
 62
     7
 10
72.203648999999984
 20
129.14921599999991
 30
0.0
 11
72.203648999999984
 21
130.149216
 31
0.0
  0
LINE
  5
457
  8
1
  6
CONTINUOUS
 62
     7
 10
67.961007999999993
 20
130.149216
 30
0.0
 11
67.961007999999993
 21
129.14921599999991
 31
0.0
  0
LINE
  5
458
  8
1
  6
CONTINUOUS
 62
     7
 10
67.961007999999993
 20
130.149216
 30
0.0
 11
72.203648999999984
 21
130.149216
 31
0.0
  0
LINE
  5
459
  8
1
  6
CONTINUOUS
 62
     7
 10
68.501190000000008
 20
129.14921599999991
 30
0.0
 11
68.501190000000008
 21
113.704117
 31
0.0
  0
LINE
  5
45A
  8
1
  6
CONTINUOUS
 62
     7
 10
71.663468000000009
 20
113.70681999999989
 30
0.0
 11
71.663468000000009
 21
129.14921599999991
 31
0.0
  0
LINE
  5
45B
  8
1
  6
CONTINUOUS
 62
     7
 10
68.501190000000008
 20
113.7049149999999
 30
0.0
 11
71.663468000000009
 21
113.7049149999999
 31
0.0
  0
LINE
  5
45C
  8
1
  6
CONTINUOUS
 62
     7
 10
192.292993
 20
133.863651
 30
0.0
 11
193.292993
 21
134.613651
 31
0.0
  0
LINE
  5
45D
  8
1
  6
CONTINUOUS
 62
     7
 10
196.042993
 20
134.613651
 30
0.0
 11
193.292993
 21
134.613651
 31
0.0
  0
LINE
  5
45E
  8
1
  6
CONTINUOUS
 62
     7
 10
196.042993
 20
97.613651000000004
 30
0.0
 11
196.042993
 21
108.4224089999999
 31
0.0
  0
LINE
  5
45F
  8
1
  6
CONTINUOUS
 62
     7
 10
193.292993
 20
97.613651000000004
 30
0.0
 11
192.292993
 21
98.363651000000004
 31
0.0
  0
LINE
  5
460
  8
1
  6
CONTINUOUS
 62
     7
 10
196.042993
 20
97.613651000000004
 30
0.0
 11
193.292993
 21
97.613651000000004
 31
0.0
  0
LINE
  5
461
  8
1
  6
CONTINUOUS
 62
     7
 10
192.292993
 20
98.363651000000004
 30
0.0
 11
192.292993
 21
108.000973
 31
0.0
  0
LINE
  5
462
  8
1
  6
CONTINUOUS
 62
     7
 10
193.292993
 20
134.613651
 30
0.0
 11
193.292993
 21
111.1178109999999
 31
0.0
  0
LINE
  5
463
  8
1
  6
CONTINUOUS
 62
     7
 10
192.292993
 20
133.863651
 30
0.0
 11
192.292993
 21
108.000973
 31
0.0
  0
LINE
  5
464
  8
1
  6
CONTINUOUS
 62
     7
 10
191.29299299999991
 20
98.363651000000004
 30
0.0
 11
191.29299299999991
 21
133.863651
 31
0.0
  0
LINE
  5
465
  8
1
  6
CONTINUOUS
 62
     7
 10
192.292993
 20
98.363651000000004
 30
0.0
 11
190.89299299999999
 21
98.363651000000004
 31
0.0
  0
LINE
  5
466
  8
1
  6
CONTINUOUS
 62
     7
 10
192.292993
 20
133.863651
 30
0.0
 11
190.89299299999999
 21
133.863651
 31
0.0
  0
LINE
  5
467
  8
1
  6
CONTINUOUS
 62
     7
 10
190.89299299999999
 20
98.363651000000004
 30
0.0
 11
190.89299299999999
 21
133.863651
 31
0.0
  0
LINE
  5
468
  8
1
  6
CONTINUOUS
 62
     7
 10
193.292993
 20
111.1178109999999
 30
0.0
 11
193.292993
 21
97.613651000000004
 31
0.0
  0
LINE
  5
469
  8
1
  6
CONTINUOUS
 62
     7
 10
190.89299299999999
 20
103.058318
 30
0.0
 11
190.33328499999999
 21
103.0093499999999
 31
0.0
  0
LINE
  5
46A
  8
1
  6
CONTINUOUS
 62
     7
 10
190.33328499999999
 20
99.607286000000016
 30
0.0
 11
190.89299299999999
 21
99.558318
 31
0.0
  0
ARC
  5
46B
  8
1
  6
CONTINUOUS
 62
     7
 10
190.38993600000001
 20
102.361824
 30
0.0
 40
0.65
 50
95.0
 51
164.11914999999991
  0
ARC
  5
46C
  8
1
  6
CONTINUOUS
 62
     7
 10
190.38993600000001
 20
100.254813
 30
0.0
 40
0.65
 50
195.88085000000001
 51
265.0
  0
LINE
  5
46D
  8
1
  6
CONTINUOUS
 62
     7
 10
189.60690299999999
 20
101.5583179999999
 30
0.0
 11
189.73667499999991
 21
101.5583179999999
 31
0.0
  0
ARC
  5
46E
  8
1
  6
CONTINUOUS
 62
     7
 10
194.09299300000001
 20
101.3083179999999
 30
0.0
 40
4.4930500000000002
 50
165.82865299999989
 51
176.81032999999991
  0
ARC
  5
46F
  8
1
  6
CONTINUOUS
 62
     7
 10
194.09299300000001
 20
101.3083179999999
 30
0.0
 40
4.4930500000000002
 50
183.18967000000001
 51
194.171347
  0
LINE
  5
470
  8
1
  6
CONTINUOUS
 62
     7
 10
189.73667499999991
 20
101.058318
 30
0.0
 11
189.60690299999999
 21
101.058318
 31
0.0
  0
ARC
  5
471
  8
1
  6
CONTINUOUS
 62
     7
 10
194.09299300000001
 20
101.3083179999999
 30
0.0
 40
4.3634849999999989
 50
176.71551700000001
 51
183.28448299999991
  0
LINE
  5
472
  8
1
  6
CONTINUOUS
 62
     7
 10
190.33328499999999
 20
103.0093499999999
 30
0.0
 11
190.33328499999999
 21
99.607286000000016
 31
0.0
  0
LINE
  5
473
  8
1
  6
CONTINUOUS
 62
     7
 10
189.764745
 20
102.5396879999999
 30
0.0
 11
189.764745
 21
100.0769479999999
 31
0.0
  0
LINE
  5
474
  8
1
  6
CONTINUOUS
 62
     7
 10
190.89299299999999
 20
117.893562
 30
0.0
 11
190.33328499999999
 21
117.844594
 31
0.0
  0
LINE
  5
475
  8
1
  6
CONTINUOUS
 62
     7
 10
190.33328499999999
 20
114.44252999999991
 30
0.0
 11
190.89299299999999
 21
114.393562
 31
0.0
  0
ARC
  5
476
  8
1
  6
CONTINUOUS
 62
     7
 10
190.38993600000001
 20
117.1970669999999
 30
0.0
 40
0.65
 50
95.0
 51
164.11914999999991
  0
ARC
  5
477
  8
1
  6
CONTINUOUS
 62
     7
 10
190.38993600000001
 20
115.0900559999999
 30
0.0
 40
0.65
 50
195.88085000000001
 51
265.0
  0
LINE
  5
478
  8
1
  6
CONTINUOUS
 62
     7
 10
189.60690299999999
 20
116.393562
 30
0.0
 11
189.73667499999991
 21
116.393562
 31
0.0
  0
ARC
  5
479
  8
1
  6
CONTINUOUS
 62
     7
 10
194.09299300000001
 20
116.143562
 30
0.0
 40
4.4930500000000002
 50
165.82865299999989
 51
176.81032999999991
  0
ARC
  5
47A
  8
1
  6
CONTINUOUS
 62
     7
 10
194.09299300000001
 20
116.143562
 30
0.0
 40
4.4930500000000002
 50
183.18967000000001
 51
194.171347
  0
LINE
  5
47B
  8
1
  6
CONTINUOUS
 62
     7
 10
189.73667499999991
 20
115.893562
 30
0.0
 11
189.60690299999999
 21
115.893562
 31
0.0
  0
ARC
  5
47C
  8
1
  6
CONTINUOUS
 62
     7
 10
194.09299300000001
 20
116.143562
 30
0.0
 40
4.3634849999999989
 50
176.71551700000001
 51
183.28448299999991
  0
LINE
  5
47D
  8
1
  6
CONTINUOUS
 62
     7
 10
190.33328499999999
 20
117.844594
 30
0.0
 11
190.33328499999999
 21
114.44252999999991
 31
0.0
  0
LINE
  5
47E
  8
1
  6
CONTINUOUS
 62
     7
 10
189.764745
 20
117.3749319999999
 30
0.0
 11
189.764745
 21
114.912192
 31
0.0
  0
LINE
  5
47F
  8
1
  6
CONTINUOUS
 62
     7
 10
190.89299299999999
 20
132.7827639999999
 30
0.0
 11
190.33328499999999
 21
132.7337959999999
 31
0.0
  0
LINE
  5
480
  8
1
  6
CONTINUOUS
 62
     7
 10
190.33328499999999
 20
129.33173300000001
 30
0.0
 11
190.89299299999999
 21
129.2827639999999
 31
0.0
  0
ARC
  5
481
  8
1
  6
CONTINUOUS
 62
     7
 10
190.38993600000001
 20
132.0862699999999
 30
0.0
 40
0.65
 50
95.0
 51
164.11914999999991
  0
ARC
  5
482
  8
1
  6
CONTINUOUS
 62
     7
 10
190.38993600000001
 20
129.97925900000001
 30
0.0
 40
0.65
 50
195.88085000000001
 51
265.0
  0
LINE
  5
483
  8
1
  6
CONTINUOUS
 62
     7
 10
189.60690299999999
 20
131.2827639999999
 30
0.0
 11
189.73667499999991
 21
131.2827639999999
 31
0.0
  0
ARC
  5
484
  8
1
  6
CONTINUOUS
 62
     7
 10
194.09299300000001
 20
131.0327639999999
 30
0.0
 40
4.4930500000000002
 50
165.82865299999989
 51
176.81032999999991
  0
ARC
  5
485
  8
1
  6
CONTINUOUS
 62
     7
 10
194.09299300000001
 20
131.0327639999999
 30
0.0
 40
4.4930500000000002
 50
183.18967000000001
 51
194.171347
  0
LINE
  5
486
  8
1
  6
CONTINUOUS
 62
     7
 10
189.73667499999991
 20
130.7827639999999
 30
0.0
 11
189.60690299999999
 21
130.7827639999999
 31
0.0
  0
ARC
  5
487
  8
1
  6
CONTINUOUS
 62
     7
 10
194.09299300000001
 20
131.0327639999999
 30
0.0
 40
4.3634849999999989
 50
176.71551700000001
 51
183.28448299999991
  0
LINE
  5
488
  8
1
  6
CONTINUOUS
 62
     7
 10
190.33328499999999
 20
132.7337959999999
 30
0.0
 11
190.33328499999999
 21
129.33173300000001
 31
0.0
  0
LINE
  5
489
  8
1
  6
CONTINUOUS
 62
     7
 10
189.764745
 20
132.26413400000001
 30
0.0
 11
189.764745
 21
129.8013949999999
 31
0.0
  0
LINE
  5
48A
  8
1
  6
CONTINUOUS
 62
     7
 10
196.042993
 20
97.613651000000004
 30
0.0
 11
196.042993
 21
92.556561000000016
 31
0.0
  0
ARC
  5
48B
  8
1
  6
CONTINUOUS
 62
     7
 10
196.54299299999991
 20
92.556561000000016
 30
0.0
 40
0.5
 50
180.0
 51
270.0
  0
LINE
  5
48C
  8
1
  6
CONTINUOUS
 62
     7
 10
196.54299299999991
 20
92.056561000000002
 30
0.0
 11
233.02657500000001
 21
92.056561000000002
 31
0.0
  0
LINE
  5
48D
  8
1
  6
CONTINUOUS
 62
     7
 10
233.52657500000001
 20
92.556561000000016
 30
0.0
 11
233.52657500000001
 21
102.3581069999999
 31
0.0
  0
ARC
  5
48E
  8
1
  6
CONTINUOUS
 62
     7
 10
233.02657500000001
 20
92.556561000000016
 30
0.0
 40
0.5
 50
270.0
 51
0.0
  0
LINE
  5
48F
  8
1
  6
CONTINUOUS
 62
     7
 10
138.54299299999991
 20
128.613651
 30
0.0
 11
138.54299299999991
 21
103.6136509999999
 31
0.0
  0
LINE
  5
490
  8
1
  6
CONTINUOUS
 62
     7
 10
138.54299299999991
 20
103.6136509999999
 30
0.0
 11
135.55525499999999
 21
105.338623
 31
0.0
  0
LINE
  5
491
  8
1
  6
CONTINUOUS
 62
     7
 10
138.54299299999991
 20
128.613651
 30
0.0
 11
135.6088179999999
 21
126.919605
 31
0.0
  0
LINE
  5
492
  8
1
  6
CONTINUOUS
 62
     7
 10
190.89299299999999
 20
128.613651
 30
0.0
 11
138.54299299999991
 21
128.613651
 31
0.0
  0
LINE
  5
493
  8
1
  6
CONTINUOUS
 62
     7
 10
190.89299299999999
 20
103.6136509999999
 30
0.0
 11
138.54299299999991
 21
103.6136509999999
 31
0.0
  0
LINE
  5
494
  8
1
  6
CONTINUOUS
 62
     7
 10
135.54299299999991
 20
126.919605
 30
0.0
 11
135.54299299999991
 21
105.338623
 31
0.0
  0
LINE
  5
495
  8
1
  6
CONTINUOUS
 62
     7
 10
135.54299299999991
 20
126.919605
 30
0.0
 11
135.54299299999991
 21
105.338623
 31
0.0
  0
LINE
  5
496
  8
1
  6
DASHDOT
 62
     7
 10
201.04299299999991
 20
97.482084999999998
 30
0.0
 11
201.04299299999991
 21
88.655759000000003
 31
0.0
  0
LINE
  5
497
  8
1
  6
DASHDOT
 62
     7
 10
231.042993
 20
97.089803000000003
 30
0.0
 11
231.042993
 21
88.557687999999985
 31
0.0
  0
LINE
  5
498
  8
1
  6
CONTINUOUS
 62
     7
 10
196.042993
 20
96.795593000000011
 30
0.0
 11
204.597612
 21
96.207171000000002
 31
0.0
  0
LINE
  5
499
  8
1
  6
CONTINUOUS
 62
     7
 10
204.597612
 20
96.207171000000002
 30
0.0
 11
205.48024499999991
 21
92.056561000000002
 31
0.0
  0
LINE
  5
49A
  8
1
  6
CONTINUOUS
 62
     7
 10
233.52657500000001
 20
96.599452000000014
 30
0.0
 11
226.85956699999991
 21
96.207171000000002
 31
0.0
  0
LINE
  5
49B
  8
1
  6
CONTINUOUS
 62
     7
 10
226.85956699999991
 20
96.207171000000002
 30
0.0
 11
226.17307500000001
 21
92.056561000000002
 31
0.0
  0
LINE
  5
49C
  8
1
  6
CONTINUOUS
 62
     7
 10
200.042993
 20
96.451672000000016
 30
0.0
 11
200.042993
 21
92.056561000000002
 31
0.0
  0
LINE
  5
49D
  8
1
  6
CONTINUOUS
 62
     7
 10
202.042993
 20
92.056561000000002
 30
0.0
 11
202.042993
 21
96.368305000000021
 31
0.0
  0
LINE
  5
49E
  8
1
  6
CONTINUOUS
 62
     7
 10
230.042993
 20
96.391862000000003
 30
0.0
 11
230.042993
 21
92.056561000000002
 31
0.0
  0
LINE
  5
49F
  8
1
  6
CONTINUOUS
 62
     7
 10
232.042993
 20
96.519048999999995
 30
0.0
 11
232.042993
 21
92.056561000000002
 31
0.0
  0
LINE
  5
4A0
  8
1
  6
CONTINUOUS
 62
     7
 10
199.633275
 20
92.056561000000002
 30
0.0
 11
200.042993
 21
92.466279
 31
0.0
  0
LINE
  5
4A1
  8
1
  6
CONTINUOUS
 62
     7
 10
199.067589
 20
92.056561000000002
 30
0.0
 11
200.042993
 21
93.031964000000002
 31
0.0
  0
LINE
  5
4A2
  8
1
  6
CONTINUOUS
 62
     7
 10
198.501904
 20
92.056561000000002
 30
0.0
 11
200.042993
 21
93.597650000000016
 31
0.0
  0
LINE
  5
4A3
  8
1
  6
CONTINUOUS
 62
     7
 10
197.93621899999991
 20
92.056561000000002
 30
0.0
 11
200.042993
 21
94.163335000000004
 31
0.0
  0
LINE
  5
4A4
  8
1
  6
CONTINUOUS
 62
     7
 10
197.37053299999991
 20
92.056561000000002
 30
0.0
 11
200.042993
 21
94.729021000000003
 31
0.0
  0
LINE
  5
4A5
  8
1
  6
CONTINUOUS
 62
     7
 10
196.80484799999999
 20
92.056561000000002
 30
0.0
 11
200.042993
 21
95.294706000000005
 31
0.0
  0
LINE
  5
4A6
  8
1
  6
CONTINUOUS
 62
     7
 10
196.30140199999991
 20
92.118801000000005
 30
0.0
 11
200.042993
 21
95.860391000000007
 31
0.0
  0
LINE
  5
4A7
  8
1
  6
CONTINUOUS
 62
     7
 10
196.0567969999999
 20
92.439881999999997
 30
0.0
 11
200.042993
 21
96.426077000000006
 31
0.0
  0
LINE
  5
4A8
  8
1
  6
CONTINUOUS
 62
     7
 10
196.042993
 20
92.991761999999994
 30
0.0
 11
199.6020189999999
 21
96.550787999999997
 31
0.0
  0
LINE
  5
4A9
  8
1
  6
CONTINUOUS
 62
     7
 10
196.042993
 20
93.557447999999994
 30
0.0
 11
199.0727389999999
 21
96.587193999999997
 31
0.0
  0
LINE
  5
4AA
  8
1
  6
CONTINUOUS
 62
     7
 10
196.042993
 20
94.123132999999996
 30
0.0
 11
198.5434599999999
 21
96.623599999999996
 31
0.0
  0
LINE
  5
4AB
  8
1
  6
CONTINUOUS
 62
     7
 10
196.042993
 20
94.688818999999995
 30
0.0
 11
198.01418000000001
 21
96.660006000000024
 31
0.0
  0
LINE
  5
4AC
  8
1
  6
CONTINUOUS
 62
     7
 10
196.042993
 20
95.254503999999997
 30
0.0
 11
197.48490099999989
 21
96.696411999999995
 31
0.0
  0
LINE
  5
4AD
  8
1
  6
CONTINUOUS
 62
     7
 10
196.042993
 20
95.820188999999985
 30
0.0
 11
196.95562100000001
 21
96.732818000000009
 31
0.0
  0
LINE
  5
4AE
  8
1
  6
CONTINUOUS
 62
     7
 10
196.042993
 20
96.385874999999984
 30
0.0
 11
196.42634200000001
 21
96.769223999999994
 31
0.0
  0
LINE
  5
4AF
  8
1
  6
CONTINUOUS
 62
     7
 10
204.99256800000001
 20
92.056561000000002
 30
0.0
 11
205.39472499999991
 21
92.458718999999988
 31
0.0
  0
LINE
  5
4B0
  8
1
  6
CONTINUOUS
 62
     7
 10
204.42688200000001
 20
92.056561000000002
 30
0.0
 11
205.295526
 21
92.925205000000005
 31
0.0
  0
LINE
  5
4B1
  8
1
  6
CONTINUOUS
 62
     7
 10
203.861197
 20
92.056561000000002
 30
0.0
 11
205.19632699999991
 21
93.391692000000006
 31
0.0
  0
LINE
  5
4B2
  8
1
  6
CONTINUOUS
 62
     7
 10
203.295511
 20
92.056561000000002
 30
0.0
 11
205.097128
 21
93.858178000000009
 31
0.0
  0
LINE
  5
4B3
  8
1
  6
CONTINUOUS
 62
     7
 10
202.729826
 20
92.056561000000002
 30
0.0
 11
204.99792999999991
 21
94.324664999999996
 31
0.0
  0
LINE
  5
4B4
  8
1
  6
CONTINUOUS
 62
     7
 10
202.16414099999989
 20
92.056561000000002
 30
0.0
 11
204.898731
 21
94.791150999999985
 31
0.0
  0
LINE
  5
4B5
  8
1
  6
CONTINUOUS
 62
     7
 10
202.042993
 20
92.501098999999996
 30
0.0
 11
204.799532
 21
95.257638
 31
0.0
  0
LINE
  5
4B6
  8
1
  6
CONTINUOUS
 62
     7
 10
202.042993
 20
93.066783999999998
 30
0.0
 11
204.70033299999989
 21
95.724124000000003
 31
0.0
  0
LINE
  5
4B7
  8
1
  6
CONTINUOUS
 62
     7
 10
202.042993
 20
93.632469
 30
0.0
 11
204.601134
 21
96.190610000000007
 31
0.0
  0
LINE
  5
4B8
  8
1
  6
CONTINUOUS
 62
     7
 10
202.042993
 20
94.198155
 30
0.0
 11
204.08712199999999
 21
96.242283999999984
 31
0.0
  0
LINE
  5
4B9
  8
1
  6
CONTINUOUS
 62
     7
 10
202.042993
 20
94.763840000000016
 30
0.0
 11
203.55784299999999
 21
96.278689999999997
 31
0.0
  0
LINE
  5
4BA
  8
1
  6
CONTINUOUS
 62
     7
 10
202.042993
 20
95.329525999999987
 30
0.0
 11
203.02856299999991
 21
96.315096000000011
 31
0.0
  0
LINE
  5
4BB
  8
1
  6
CONTINUOUS
 62
     7
 10
202.042993
 20
95.895211000000003
 30
0.0
 11
202.49928399999999
 21
96.351501999999996
 31
0.0
  0
LINE
  5
4BC
  8
1
  6
CONTINUOUS
 62
     7
 10
232.77607999999989
 20
92.056561000000002
 30
0.0
 11
233.52657500000001
 21
92.807056000000003
 31
0.0
  0
LINE
  5
4BD
  8
1
  6
CONTINUOUS
 62
     7
 10
232.21039500000001
 20
92.056561000000002
 30
0.0
 11
233.52657500000001
 21
93.372741000000005
 31
0.0
  0
LINE
  5
4BE
  8
1
  6
CONTINUOUS
 62
     7
 10
232.042993
 20
92.454844999999992
 30
0.0
 11
233.52657500000001
 21
93.938427000000004
 31
0.0
  0
LINE
  5
4BF
  8
1
  6
CONTINUOUS
 62
     7
 10
232.042993
 20
93.020529999999994
 30
0.0
 11
233.52657500000001
 21
94.504112000000006
 31
0.0
  0
LINE
  5
4C0
  8
1
  6
CONTINUOUS
 62
     7
 10
232.042993
 20
93.586214999999996
 30
0.0
 11
233.52657500000001
 21
95.069797999999992
 31
0.0
  0
LINE
  5
4C1
  8
1
  6
CONTINUOUS
 62
     7
 10
232.042993
 20
94.151900999999995
 30
0.0
 11
233.52657500000001
 21
95.635482999999994
 31
0.0
  0
LINE
  5
4C2
  8
1
  6
CONTINUOUS
 62
     7
 10
232.042993
 20
94.717585999999983
 30
0.0
 11
233.52657500000001
 21
96.201168999999993
 31
0.0
  0
LINE
  5
4C3
  8
1
  6
CONTINUOUS
 62
     7
 10
232.042993
 20
95.283271999999997
 30
0.0
 11
233.34870699999991
 21
96.588986000000006
 31
0.0
  0
LINE
  5
4C4
  8
1
  6
CONTINUOUS
 62
     7
 10
232.042993
 20
95.848956999999999
 30
0.0
 11
232.74765699999989
 21
96.553620999999993
 31
0.0
  0
LINE
  5
4C5
  8
1
  6
CONTINUOUS
 62
     7
 10
232.042993
 20
96.414642000000015
 30
0.0
 11
232.14660599999999
 21
96.518256000000022
 31
0.0
  0
LINE
  5
4C6
  8
1
  6
CONTINUOUS
 62
     7
 10
229.89887200000001
 20
92.056561000000002
 30
0.0
 11
230.042993
 21
92.200682
 31
0.0
  0
LINE
  5
4C7
  8
1
  6
CONTINUOUS
 62
     7
 10
229.33318700000001
 20
92.056561000000002
 30
0.0
 11
230.042993
 21
92.766367000000002
 31
0.0
  0
LINE
  5
4C8
  8
1
  6
CONTINUOUS
 62
     7
 10
228.76750100000001
 20
92.056561000000002
 30
0.0
 11
230.042993
 21
93.332053000000016
 31
0.0
  0
LINE
  5
4C9
  8
1
  6
CONTINUOUS
 62
     7
 10
228.20181600000001
 20
92.056561000000002
 30
0.0
 11
230.042993
 21
93.897738000000004
 31
0.0
  0
LINE
  5
4CA
  8
1
  6
CONTINUOUS
 62
     7
 10
227.63613000000001
 20
92.056561000000002
 30
0.0
 11
230.042993
 21
94.463422999999992
 31
0.0
  0
LINE
  5
4CB
  8
1
  6
CONTINUOUS
 62
     7
 10
227.07044500000001
 20
92.056561000000002
 30
0.0
 11
230.042993
 21
95.029108999999991
 31
0.0
  0
LINE
  5
4CC
  8
1
  6
CONTINUOUS
 62
     7
 10
226.50475899999989
 20
92.056561000000002
 30
0.0
 11
230.042993
 21
95.594793999999979
 31
0.0
  0
LINE
  5
4CD
  8
1
  6
CONTINUOUS
 62
     7
 10
226.219448
 20
92.336934999999997
 30
0.0
 11
230.042993
 21
96.160480000000007
 31
0.0
  0
LINE
  5
4CE
  8
1
  6
CONTINUOUS
 62
     7
 10
226.33155099999991
 20
93.014723999999987
 30
0.0
 11
229.690572
 21
96.373744999999985
 31
0.0
  0
LINE
  5
4CF
  8
1
  6
CONTINUOUS
 62
     7
 10
226.44365400000001
 20
93.692511999999994
 30
0.0
 11
229.08952199999999
 21
96.338380000000001
 31
0.0
  0
LINE
  5
4D0
  8
1
  6
CONTINUOUS
 62
     7
 10
226.55575699999989
 20
94.370300999999984
 30
0.0
 11
228.488471
 21
96.303014000000005
 31
0.0
  0
LINE
  5
4D1
  8
1
  6
CONTINUOUS
 62
     7
 10
226.66786099999999
 20
95.048089000000004
 30
0.0
 11
227.88741999999999
 21
96.267649000000006
 31
0.0
  0
LINE
  5
4D2
  8
1
  6
CONTINUOUS
 62
     7
 10
226.77996400000001
 20
95.725877999999994
 30
0.0
 11
227.28636900000001
 21
96.232284000000007
 31
0.0
  0
LINE
  5
4D3
  8
1
  6
CONTINUOUS
 62
     7
 10
249.59299299999989
 20
131.55656099999999
 30
0.0
 11
249.59299299999989
 21
112.556561
 31
0.0
  0
LINE
  5
4D4
  8
1
  6
CONTINUOUS
 62
     7
 10
249.59299299999989
 20
131.55656099999999
 30
0.0
 11
236.09299300000001
 21
131.55656099999999
 31
0.0
  0
LINE
  5
4D5
  8
1
  6
CONTINUOUS
 62
     7
 10
249.59299299999989
 20
112.556561
 30
0.0
 11
236.09299300000001
 21
112.556561
 31
0.0
  0
LINE
  5
4D6
  8
1
  6
CONTINUOUS
 62
     7
 10
234.3768759999999
 20
141.30656099999999
 30
0.0
 11
232.669769
 21
141.30656099999999
 31
0.0
  0
LINE
  5
4D7
  8
1
  6
CONTINUOUS
 62
     7
 10
89.332329000000001
 20
92.056561000000002
 30
0.0
 11
97.963770999999994
 21
79.549768
 31
0.0
  0
LINE
  5
4D8
  8
1
  6
CONTINUOUS
 62
     7
 10
97.963770999999994
 20
79.549768
 30
0.0
 11
106.9714559999999
 21
79.549768
 31
0.0
  0
TEXT
  5
4D9
  8
1
  6
CONTINUOUS
 62
     7
 10
98.971456000000003
 20
79.658630999999986
 30
0.0
 40
4.0
  1
4-M4
 41
0.5
  7
KANJI
  0
LINE
  5
4DA
  8
1
  6
CONTINUOUS
 62
     7
 10
89.332329000000001
 20
92.056561000000002
 30
0.0
 11
92.378985
 21
89.464673000000005
 31
0.0
  0
LINE
  5
4DB
  8
1
  6
CONTINUOUS
 62
     7
 10
89.332329000000001
 20
92.056561000000002
 30
0.0
 11
90.674867000000006
 21
88.288592000000008
 31
0.0
  0
LINE
  5
4DC
  8
1
  6
CONTINUOUS
 62
     7
 10
135.54299299999991
 20
145.37686599999989
 30
0.0
 11
249.59299299999989
 21
145.37686599999989
 31
0.0
  0
LINE
  5
4DD
  8
1
  6
CONTINUOUS
 62
     7
 10
135.54299299999991
 20
147.37686599999989
 30
0.0
 11
135.54299299999991
 21
128.91960499999999
 31
0.0
  0
LINE
  5
4DE
  8
1
  6
CONTINUOUS
 62
     7
 10
249.59299299999989
 20
147.37686599999989
 30
0.0
 11
249.59299299999989
 21
133.55656099999999
 31
0.0
  0
LINE
  5
4DF
  8
1
  6
CONTINUOUS
 62
     7
 10
135.54299299999991
 20
145.37686599999989
 30
0.0
 11
138.4407699999999
 21
146.153323
 31
0.0
  0
LINE
  5
4E0
  8
1
  6
CONTINUOUS
 62
     7
 10
135.54299299999991
 20
145.37686599999989
 30
0.0
 11
138.4407699999999
 21
144.60040900000001
 31
0.0
  0
LINE
  5
4E1
  8
1
  6
CONTINUOUS
 62
     7
 10
249.59299299999989
 20
145.37686599999989
 30
0.0
 11
246.69521499999999
 21
144.60040900000001
 31
0.0
  0
LINE
  5
4E2
  8
1
  6
CONTINUOUS
 62
     7
 10
249.59299299999989
 20
145.37686599999989
 30
0.0
 11
246.69521499999999
 21
146.153323
 31
0.0
  0
TEXT
  5
4E3
  8
1
  6
CONTINUOUS
 62
     7
 10
191.4419629999999
 20
145.52381099999999
 30
0.0
 40
4.0
  1
228
 41
0.5
  7
KANJI
  0
LINE
  5
4E4
  8
1
  6
CONTINUOUS
 62
     7
 10
236.09299300000001
 20
96.591123999999994
 30
0.0
 11
249.59299299999989
 21
96.591123999999994
 31
0.0
  0
LINE
  5
4E5
  8
1
  6
CONTINUOUS
 62
     7
 10
236.09299300000001
 20
94.591123999999994
 30
0.0
 11
236.09299300000001
 21
110.556561
 31
0.0
  0
LINE
  5
4E6
  8
1
  6
CONTINUOUS
 62
     7
 10
249.59299299999989
 20
94.591123999999994
 30
0.0
 11
249.59299299999989
 21
110.556561
 31
0.0
  0
LINE
  5
4E7
  8
1
  6
CONTINUOUS
 62
     7
 10
236.09299300000001
 20
96.591123999999994
 30
0.0
 11
238.99077
 21
97.367581000000015
 31
0.0
  0
LINE
  5
4E8
  8
1
  6
CONTINUOUS
 62
     7
 10
236.09299300000001
 20
96.591123999999994
 30
0.0
 11
238.99077
 21
95.814667
 31
0.0
  0
LINE
  5
4E9
  8
1
  6
CONTINUOUS
 62
     7
 10
249.59299299999989
 20
96.591123999999994
 30
0.0
 11
246.69521499999999
 21
95.814667
 31
0.0
  0
LINE
  5
4EA
  8
1
  6
CONTINUOUS
 62
     7
 10
249.59299299999989
 20
96.591123999999994
 30
0.0
 11
246.69521499999999
 21
97.367581000000015
 31
0.0
  0
TEXT
  5
4EB
  8
1
  6
CONTINUOUS
 62
     7
 10
240.49297999999999
 20
96.591123999999994
 30
0.0
 40
4.0
  1
27
 41
0.5
  7
KANJI
  0
LINE
  5
4EC
  8
1
  6
CONTINUOUS
 62
     7
 10
135.54299299999991
 20
75.577989000000002
 30
0.0
 11
233.52657500000001
 21
75.577989000000002
 31
0.0
  0
LINE
  5
4ED
  8
1
  6
CONTINUOUS
 62
     7
 10
135.54299299999991
 20
73.577989000000002
 30
0.0
 11
135.54299299999991
 21
103.338623
 31
0.0
  0
LINE
  5
4EE
  8
1
  6
CONTINUOUS
 62
     7
 10
233.52657500000001
 20
73.577989000000002
 30
0.0
 11
233.52657500000001
 21
90.556561000000002
 31
0.0
  0
LINE
  5
4EF
  8
1
  6
CONTINUOUS
 62
     7
 10
135.54299299999991
 20
75.577989000000002
 30
0.0
 11
138.4407699999999
 21
76.354445999999996
 31
0.0
  0
LINE
  5
4F0
  8
1
  6
CONTINUOUS
 62
     7
 10
135.54299299999991
 20
75.577989000000002
 30
0.0
 11
138.4407699999999
 21
74.801531999999995
 31
0.0
  0
LINE
  5
4F1
  8
1
  6
CONTINUOUS
 62
     7
 10
233.52657500000001
 20
75.577989000000002
 30
0.0
 11
230.62879799999999
 21
74.801531999999995
 31
0.0
  0
LINE
  5
4F2
  8
1
  6
CONTINUOUS
 62
     7
 10
233.52657500000001
 20
75.577989000000002
 30
0.0
 11
230.62879799999999
 21
76.354445999999996
 31
0.0
  0
TEXT
  5
4F3
  8
1
  6
CONTINUOUS
 62
     7
 10
186.29888799999989
 20
75.577989000000002
 30
0.0
 40
4.0
  1
196
 41
0.5
  7
KANJI
  0
LINE
  5
4F4
  8
1
  6
CONTINUOUS
 62
     7
 10
201.04299299999991
 20
84.387775000000005
 30
0.0
 11
231.042993
 21
84.387775000000005
 31
0.0
  0
LINE
  5
4F5
  8
1
  6
CONTINUOUS
 62
     7
 10
201.04299299999991
 20
82.387775000000005
 30
0.0
 11
201.04299299999991
 21
90.056561000000016
 31
0.0
  0
LINE
  5
4F6
  8
1
  6
CONTINUOUS
 62
     7
 10
231.042993
 20
82.387775000000005
 30
0.0
 11
231.042993
 21
90.056561000000016
 31
0.0
  0
LINE
  5
4F7
  8
1
  6
CONTINUOUS
 62
     7
 10
201.04299299999991
 20
84.387775000000005
 30
0.0
 11
203.9407699999999
 21
85.164231999999998
 31
0.0
  0
LINE
  5
4F8
  8
1
  6
CONTINUOUS
 62
     7
 10
201.04299299999991
 20
84.387775000000005
 30
0.0
 11
203.9407699999999
 21
83.611317999999997
 31
0.0
  0
LINE
  5
4F9
  8
1
  6
CONTINUOUS
 62
     7
 10
231.042993
 20
84.387775000000005
 30
0.0
 11
228.14521499999989
 21
83.611317999999997
 31
0.0
  0
LINE
  5
4FA
  8
1
  6
CONTINUOUS
 62
     7
 10
231.042993
 20
84.387775000000005
 30
0.0
 11
228.14521499999989
 21
85.164231999999998
 31
0.0
  0
TEXT
  5
4FB
  8
1
  6
CONTINUOUS
 62
     7
 10
213.00693299999989
 20
84.448305000000005
 30
0.0
 40
4.0
  1
60
 41
0.5
  7
KANJI
  0
LINE
  5
4FC
  8
1
  6
CONTINUOUS
 62
     7
 10
188.042993
 20
84.387775000000005
 30
0.0
 11
209.04299299999991
 21
84.387775000000005
 31
0.0
  0
LINE
  5
4FD
  8
1
  6
CONTINUOUS
 62
     7
 10
196.042993
 20
82.387775000000005
 30
0.0
 11
196.042993
 21
90.556561000000002
 31
0.0
  0
LINE
  5
4FE
  8
1
  6
CONTINUOUS
 62
     7
 10
201.04299299999991
 20
82.387775000000005
 30
0.0
 11
201.04299299999991
 21
90.056561000000016
 31
0.0
  0
LINE
  5
4FF
  8
1
  6
CONTINUOUS
 62
     7
 10
196.042993
 20
84.387775000000005
 30
0.0
 11
193.14521499999989
 21
83.611317999999997
 31
0.0
  0
LINE
  5
500
  8
1
  6
CONTINUOUS
 62
     7
 10
196.042993
 20
84.387775000000005
 30
0.0
 11
193.14521499999989
 21
85.164231999999998
 31
0.0
  0
LINE
  5
501
  8
1
  6
CONTINUOUS
 62
     7
 10
201.04299299999991
 20
84.387775000000005
 30
0.0
 11
203.9407699999999
 21
85.164231999999998
 31
0.0
  0
LINE
  5
502
  8
1
  6
CONTINUOUS
 62
     7
 10
201.04299299999991
 20
84.387775000000005
 30
0.0
 11
203.9407699999999
 21
83.611317999999997
 31
0.0
  0
TEXT
  5
503
  8
1
  6
CONTINUOUS
 62
     7
 10
196.54264900000001
 20
84.508836000000002
 30
0.0
 40
4.0
  1
10
 41
0.5
  7
KANJI
  0
LINE
  5
504
  8
1
  6
CONTINUOUS
 62
     7
 10
135.55525499999999
 20
84.378822
 30
0.0
 11
196.042993
 21
84.378822
 31
0.0
  0
LINE
  5
505
  8
1
  6
CONTINUOUS
 62
     7
 10
135.55525499999999
 20
82.378821999999985
 30
0.0
 11
135.55525499999999
 21
103.338623
 31
0.0
  0
LINE
  5
506
  8
1
  6
CONTINUOUS
 62
     7
 10
196.042993
 20
82.378821999999985
 30
0.0
 11
196.042993
 21
90.556561000000002
 31
0.0
  0
LINE
  5
507
  8
1
  6
CONTINUOUS
 62
     7
 10
135.55525499999999
 20
84.378822
 30
0.0
 11
138.45303200000001
 21
85.155278999999993
 31
0.0
  0
LINE
  5
508
  8
1
  6
CONTINUOUS
 62
     7
 10
135.55525499999999
 20
84.378822
 30
0.0
 11
138.45303200000001
 21
83.602363999999994
 31
0.0
  0
LINE
  5
509
  8
1
  6
CONTINUOUS
 62
     7
 10
196.042993
 20
84.378822
 30
0.0
 11
193.14521499999989
 21
83.602363999999994
 31
0.0
  0
LINE
  5
50A
  8
1
  6
CONTINUOUS
 62
     7
 10
196.042993
 20
84.378822
 30
0.0
 11
193.14521499999989
 21
85.155278999999993
 31
0.0
  0
TEXT
  5
50B
  8
1
  6
CONTINUOUS
 62
     7
 10
163.26025699999991
 20
84.518178000000006
 30
0.0
 40
4.0
  1
121
 41
0.5
  7
KANJI
  0
LINE
  5
50C
  8
1
  6
CONTINUOUS
 62
     7
 10
258.37476800000002
 20
131.55656099999999
 30
0.0
 11
258.37476800000002
 21
112.556561
 31
0.0
  0
LINE
  5
50D
  8
1
  6
CONTINUOUS
 62
     7
 10
260.37476800000002
 20
131.55656099999999
 30
0.0
 11
251.59299299999989
 21
131.55656099999999
 31
0.0
  0
LINE
  5
50E
  8
1
  6
CONTINUOUS
 62
     7
 10
260.37476800000002
 20
112.556561
 30
0.0
 11
251.59299299999989
 21
112.556561
 31
0.0
  0
LINE
  5
50F
  8
1
  6
CONTINUOUS
 62
     7
 10
258.37476800000002
 20
131.55656099999999
 30
0.0
 11
259.15122500000001
 21
128.65878399999991
 31
0.0
  0
LINE
  5
510
  8
1
  6
CONTINUOUS
 62
     7
 10
258.37476800000002
 20
131.55656099999999
 30
0.0
 11
257.59831099999991
 21
128.65878399999991
 31
0.0
  0
LINE
  5
511
  8
1
  6
CONTINUOUS
 62
     7
 10
258.37476800000002
 20
112.556561
 30
0.0
 11
257.59831099999991
 21
115.45433899999991
 31
0.0
  0
LINE
  5
512
  8
1
  6
CONTINUOUS
 62
     7
 10
258.37476800000002
 20
112.556561
 30
0.0
 11
259.15122500000001
 21
115.45433899999991
 31
0.0
  0
TEXT
  5
513
  8
1
  6
CONTINUOUS
 62
     7
 10
258.235412
 20
117.726309
 30
0.0
 40
4.0
  1
φ38
 50
90.0
 41
0.625
  7
KANJI
  0
LINE
  5
514
  8
1
  6
CONTINUOUS
 62
     7
 10
147.16844499999991
 20
128.613651
 30
0.0
 11
147.16844499999991
 21
103.6136509999999
 31
0.0
  0
LINE
  5
515
  8
1
  6
CONTINUOUS
 62
     7
 10
149.16844499999991
 20
128.613651
 30
0.0
 11
140.54299299999991
 21
128.613651
 31
0.0
  0
LINE
  5
516
  8
1
  6
CONTINUOUS
 62
     7
 10
149.16844499999991
 20
103.6136509999999
 30
0.0
 11
140.54299299999991
 21
103.6136509999999
 31
0.0
  0
LINE
  5
517
  8
1
  6
CONTINUOUS
 62
     7
 10
147.16844499999991
 20
128.613651
 30
0.0
 11
147.94490200000001
 21
125.7158739999999
 31
0.0
  0
LINE
  5
518
  8
1
  6
CONTINUOUS
 62
     7
 10
147.16844499999991
 20
128.613651
 30
0.0
 11
146.39198699999989
 21
125.7158739999999
 31
0.0
  0
LINE
  5
519
  8
1
  6
CONTINUOUS
 62
     7
 10
147.16844499999991
 20
103.6136509999999
 30
0.0
 11
146.39198699999989
 21
106.51142900000001
 31
0.0
  0
LINE
  5
51A
  8
1
  6
CONTINUOUS
 62
     7
 10
147.16844499999991
 20
103.6136509999999
 30
0.0
 11
147.94490200000001
 21
106.51142900000001
 31
0.0
  0
TEXT
  5
51B
  8
1
  6
CONTINUOUS
 62
     7
 10
147.029088
 20
112.113651
 30
0.0
 40
4.0
  1
φ50
 50
90.0
 41
0.625
  7
KANJI
  0
LINE
  5
51C
  8
1
  6
CONTINUOUS
 62
     7
 10
129.4701949999999
 20
92.056561000000002
 30
0.0
 11
129.4701949999999
 21
116.113651
 31
0.0
  0
LINE
  5
51D
  8
1
  6
CONTINUOUS
 62
     7
 10
127.4701949999999
 20
92.056561000000002
 30
0.0
 11
195.37053299999999
 21
92.056561000000002
 31
0.0
  0
LINE
  5
51E
  8
1
  6
CONTINUOUS
 62
     7
 10
127.4701949999999
 20
116.113651
 30
0.0
 11
133.54299299999991
 21
116.113651
 31
0.0
  0
LINE
  5
51F
  8
1
  6
CONTINUOUS
 62
     7
 10
129.4701949999999
 20
92.056561000000002
 30
0.0
 11
128.69373799999991
 21
94.954339000000004
 31
0.0
  0
LINE
  5
520
  8
1
  6
CONTINUOUS
 62
     7
 10
129.4701949999999
 20
92.056561000000002
 30
0.0
 11
130.24665200000001
 21
94.954339000000004
 31
0.0
  0
LINE
  5
521
  8
1
  6
CONTINUOUS
 62
     7
 10
129.4701949999999
 20
116.113651
 30
0.0
 11
130.24665200000001
 21
113.2158739999999
 31
0.0
  0
LINE
  5
522
  8
1
  6
CONTINUOUS
 62
     7
 10
129.4701949999999
 20
116.113651
 30
0.0
 11
128.69373799999991
 21
113.2158739999999
 31
0.0
  0
TEXT
  5
523
  8
1
  6
CONTINUOUS
 62
     7
 10
129.4701949999999
 20
100.773853
 30
0.0
 40
4.0
  1
48
 50
90.0
 41
0.5
  7
KANJI
  0
LINE
  5
524
  8
1
  6
CONTINUOUS
 62
     7
 10
31.884104999999991
 20
92.056561000000002
 30
0.0
 11
31.884104999999991
 21
141.30656099999999
 31
0.0
  0
LINE
  5
525
  8
1
  6
CONTINUOUS
 62
     7
 10
29.884105000000002
 20
92.056561000000002
 30
0.0
 11
46.806653999999988
 21
92.056561000000002
 31
0.0
  0
LINE
  5
526
  8
1
  6
CONTINUOUS
 62
     7
 10
29.884105000000002
 20
141.30656099999999
 30
0.0
 11
68.082329000000001
 21
141.30656099999999
 31
0.0
  0
LINE
  5
527
  8
1
  6
CONTINUOUS
 62
     7
 10
31.884104999999991
 20
92.056561000000002
 30
0.0
 11
31.107648000000001
 21
94.954339000000004
 31
0.0
  0
LINE
  5
528
  8
1
  6
CONTINUOUS
 62
     7
 10
31.884104999999991
 20
92.056561000000002
 30
0.0
 11
32.660561999999992
 21
94.954339000000004
 31
0.0
  0
LINE
  5
529
  8
1
  6
CONTINUOUS
 62
     7
 10
31.884104999999991
 20
141.30656099999999
 30
0.0
 11
32.660561999999992
 21
138.408784
 31
0.0
  0
LINE
  5
52A
  8
1
  6
CONTINUOUS
 62
     7
 10
31.884104999999991
 20
141.30656099999999
 30
0.0
 11
31.107648000000001
 21
138.408784
 31
0.0
  0
TEXT
  5
52B
  8
1
  6
CONTINUOUS
 62
     7
 10
31.775241999999999
 20
111.4744629999999
 30
0.0
 40
4.0
  1
98.5
 50
90.0
 41
0.5555560000000001
  7
KANJI
  0
LINE
  5
52C
  8
1
  6
CONTINUOUS
 62
     7
 10
36.674064000000001
 20
92.056561000000002
 30
0.0
 11
36.674064000000001
 21
122.056561
 31
0.0
  0
LINE
  5
52D
  8
1
  6
CONTINUOUS
 62
     7
 10
34.674064000000001
 20
92.056561000000002
 30
0.0
 11
46.240969
 21
92.056561000000002
 31
0.0
  0
LINE
  5
52E
  8
1
  6
CONTINUOUS
 62
     7
 10
34.674064000000001
 20
122.056561
 30
0.0
 11
52.093975
 21
122.056561
 31
0.0
  0
LINE
  5
52F
  8
1
  6
CONTINUOUS
 62
     7
 10
36.674064000000001
 20
92.056561000000002
 30
0.0
 11
35.897607000000001
 21
94.954339000000004
 31
0.0
  0
LINE
  5
530
  8
1
  6
CONTINUOUS
 62
     7
 10
36.674064000000001
 20
92.056561000000002
 30
0.0
 11
37.450521999999992
 21
94.954339000000004
 31
0.0
  0
LINE
  5
531
  8
1
  6
CONTINUOUS
 62
     7
 10
36.674064000000001
 20
122.056561
 30
0.0
 11
37.450521999999992
 21
119.158784
 31
0.0
  0
LINE
  5
532
  8
1
  6
CONTINUOUS
 62
     7
 10
36.674064000000001
 20
122.056561
 30
0.0
 11
35.897607000000001
 21
119.158784
 31
0.0
  0
TEXT
  5
533
  8
1
  6
CONTINUOUS
 62
     7
 10
36.674064000000001
 20
103.8945439999999
 30
0.0
 40
4.0
  1
60
 50
90.0
 41
0.5
  7
KANJI
  0
LINE
  5
534
  8
1
  6
CONTINUOUS
 62
     7
 10
41.681748999999989
 20
92.056561000000002
 30
0.0
 11
41.681748999999989
 21
102.056561
 31
0.0
  0
LINE
  5
535
  8
1
  6
CONTINUOUS
 62
     7
 10
39.681748999999989
 20
92.056561000000002
 30
0.0
 11
46.082328999999987
 21
92.056561000000002
 31
0.0
  0
LINE
  5
536
  8
1
  6
CONTINUOUS
 62
     7
 10
39.681748999999989
 20
102.056561
 30
0.0
 11
47.415380999999989
 21
102.056561
 31
0.0
  0
LINE
  5
537
  8
1
  6
CONTINUOUS
 62
     7
 10
41.681748999999989
 20
92.056561000000002
 30
0.0
 11
40.905291999999989
 21
94.954339000000004
 31
0.0
  0
LINE
  5
538
  8
1
  6
CONTINUOUS
 62
     7
 10
41.681748999999989
 20
92.056561000000002
 30
0.0
 11
42.458205999999997
 21
94.954339000000004
 31
0.0
  0
LINE
  5
539
  8
1
  6
CONTINUOUS
 62
     7
 10
41.681748999999989
 20
102.056561
 30
0.0
 11
42.458205999999997
 21
99.158783999999997
 31
0.0
  0
LINE
  5
53A
  8
1
  6
CONTINUOUS
 62
     7
 10
41.681748999999989
 20
102.056561
 30
0.0
 11
40.905291999999989
 21
99.158783999999997
 31
0.0
  0
TEXT
  5
53B
  8
1
  6
CONTINUOUS
 62
     7
 10
41.790612000000003
 20
94.967802000000006
 30
0.0
 40
4.0
  1
20
 50
90.0
 41
0.5
  7
KANJI
  0
LINE
  5
53C
  8
1
  6
CONTINUOUS
 62
     7
 10
39.552650999999997
 20
84.884040999999996
 30
0.0
 11
58.832329000000001
 21
84.884040999999996
 31
0.0
  0
LINE
  5
53D
  8
1
  6
CONTINUOUS
 62
     7
 10
48.121355000000001
 20
82.884040999999996
 30
0.0
 11
48.121355000000001
 21
90.502632999999989
 31
0.0
  0
LINE
  5
53E
  8
1
  6
CONTINUOUS
 62
     7
 10
50.832329000000001
 20
82.884040999999996
 30
0.0
 11
50.832329000000001
 21
90.056561000000016
 31
0.0
  0
LINE
  5
53F
  8
1
  6
CONTINUOUS
 62
     7
 10
48.121355000000001
 20
84.884040999999996
 30
0.0
 11
45.223578000000003
 21
84.107584000000003
 31
0.0
  0
LINE
  5
540
  8
1
  6
CONTINUOUS
 62
     7
 10
48.121355000000001
 20
84.884040999999996
 30
0.0
 11
45.223578000000003
 21
85.660498000000004
 31
0.0
  0
LINE
  5
541
  8
1
  6
CONTINUOUS
 62
     7
 10
50.832329000000001
 20
84.884040999999996
 30
0.0
 11
53.730105999999999
 21
85.660498000000004
 31
0.0
  0
LINE
  5
542
  8
1
  6
CONTINUOUS
 62
     7
 10
50.832329000000001
 20
84.884040999999996
 30
0.0
 11
53.730105999999999
 21
84.107584000000003
 31
0.0
  0
TEXT
  5
543
  8
1
  6
CONTINUOUS
 62
     7
 10
38.802650999999997
 20
84.884040999999996
 30
0.0
 40
4.0
  1
5.5
 41
0.576923
  7
KANJI
  0
LINE
  5
544
  8
1
  6
CONTINUOUS
 62
     7
 10
48.082329000000001
 20
78.678867000000011
 30
0.0
 11
92.082329000000001
 21
78.678867000000011
 31
0.0
  0
LINE
  5
545
  8
1
  6
CONTINUOUS
 62
     7
 10
48.082329000000001
 20
76.678867000000011
 30
0.0
 11
48.082329000000001
 21
90.056561000000016
 31
0.0
  0
LINE
  5
546
  8
1
  6
CONTINUOUS
 62
     7
 10
92.082329000000001
 20
76.678867000000011
 30
0.0
 11
92.082329000000001
 21
90.056561000000016
 31
0.0
  0
LINE
  5
547
  8
1
  6
CONTINUOUS
 62
     7
 10
48.082329000000001
 20
78.678867000000011
 30
0.0
 11
50.980105999999999
 21
79.455324000000005
 31
0.0
  0
LINE
  5
548
  8
1
  6
CONTINUOUS
 62
     7
 10
48.082329000000001
 20
78.678867000000011
 30
0.0
 11
50.980105999999999
 21
77.902408999999992
 31
0.0
  0
LINE
  5
549
  8
1
  6
CONTINUOUS
 62
     7
 10
92.082329000000001
 20
78.678867000000011
 30
0.0
 11
89.184550999999999
 21
77.902408999999992
 31
0.0
  0
LINE
  5
54A
  8
1
  6
CONTINUOUS
 62
     7
 10
92.082329000000001
 20
78.678867000000011
 30
0.0
 11
89.184550999999999
 21
79.455324000000005
 31
0.0
  0
TEXT
  5
54B
  8
1
  6
CONTINUOUS
 62
     7
 10
68.203778999999997
 20
78.787728999999999
 30
0.0
 40
4.0
  1
88
 41
0.5
  7
KANJI
  0
LINE
  5
54C
  8
1
  6
CONTINUOUS
 62
     7
 10
50.832329000000001
 20
84.884040999999996
 30
0.0
 11
89.332329000000001
 21
84.884040999999996
 31
0.0
  0
LINE
  5
54D
  8
1
  6
CONTINUOUS
 62
     7
 10
50.832329000000001
 20
82.884040999999996
 30
0.0
 11
50.832329000000001
 21
90.056561000000016
 31
0.0
  0
LINE
  5
54E
  8
1
  6
CONTINUOUS
 62
     7
 10
89.332329000000001
 20
82.884040999999996
 30
0.0
 11
89.332329000000001
 21
90.056561000000016
 31
0.0
  0
LINE
  5
54F
  8
1
  6
CONTINUOUS
 62
     7
 10
50.832329000000001
 20
84.884040999999996
 30
0.0
 11
53.730105999999999
 21
85.660498000000004
 31
0.0
  0
LINE
  5
550
  8
1
  6
CONTINUOUS
 62
     7
 10
50.832329000000001
 20
84.884040999999996
 30
0.0
 11
53.730105999999999
 21
84.107584000000003
 31
0.0
  0
LINE
  5
551
  8
1
  6
CONTINUOUS
 62
     7
 10
89.332329000000001
 20
84.884040999999996
 30
0.0
 11
86.434550999999999
 21
84.107584000000003
 31
0.0
  0
LINE
  5
552
  8
1
  6
CONTINUOUS
 62
     7
 10
89.332329000000001
 20
84.884040999999996
 30
0.0
 11
86.434550999999999
 21
85.660498000000004
 31
0.0
  0
TEXT
  5
553
  8
1
  6
CONTINUOUS
 62
     7
 10
68.203778999999997
 20
84.99290400000001
 30
0.0
 40
4.0
  1
77
 41
0.5
  7
KANJI
  0
ENDSEC
  0
EOF
