  0
SECTION
  2
HEADER
  9
$ACADVER
  1
AC1015
  9
$ACADMAINTVER
 70
     6
  9
$DWGCODEPAGE
  3
ANSI_932
  9
$INSBASE
 10
0.0
 20
0.0
 30
0.0
  9
$EXTMIN
 10
6.290222866798558
 20
3.278046147057409
 30
-0.0015258207003583
  9
$EXTMAX
 10
283.4134833417058
 20
193.3918766903131
 30
0.0000000349246037
  9
$LIMMIN
 10
0.0
 20
0.0
  9
$LIMMAX
 10
297.0
 20
210.0
  9
$ORTHOMODE
 70
     0
  9
$REGENMODE
 70
     1
  9
$FILLMODE
 70
     1
  9
$QTEXTMODE
 70
     0
  9
$MIRRTEXT
 70
     1
  9
$LTSCALE
 40
0.25
  9
$ATTMODE
 70
     1
  9
$TEXTSIZE
 40
0.2
  9
$TRACEWID
 40
0.05
  9
$TEXTSTYLE
  7
STANDARD
  9
$CLAYER
  8
0
  9
$CELTYPE
  6
ByLayer
  9
$CECOLOR
 62
   256
  9
$CELTSCALE
 40
1.0
  9
$DISPSILH
 70
     0
  9
$DIMSCALE
 40
1.0
  9
$DIMASZ
 40
1.0
  9
$DIMEXO
 40
0.0
  9
$DIMDLI
 40
0.5
  9
$DIMRND
 40
0.0
  9
$DIMDLE
 40
0.0
  9
$DIMEXE
 40
0.0
  9
$DIMTP
 40
0.0
  9
$DIMTM
 40
0.0
  9
$DIMTXT
 40
0.18
  9
$DIMCEN
 40
0.0
  9
$DIMTSZ
 40
0.0
  9
$DIMTOL
 70
     0
  9
$DIMLIM
 70
     0
  9
$DIMTIH
 70
     1
  9
$DIMTOH
 70
     1
  9
$DIMSE1
 70
     0
  9
$DIMSE2
 70
     0
  9
$DIMTAD
 70
     0
  9
$DIMZIN
 70
     0
  9
$DIMBLK
  1

  9
$DIMASO
 70
     0
  9
$DIMSHO
 70
     0
  9
$DIMPOST
  1

  9
$DIMAPOST
  1

  9
$DIMALT
 70
     0
  9
$DIMALTD
 70
     0
  9
$DIMALTF
 40
25.4
  9
$DIMLFAC
 40
1.0
  9
$DIMTOFL
 70
     0
  9
$DIMTVP
 40
0.0
  9
$DIMTIX
 70
     0
  9
$DIMSOXD
 70
     0
  9
$DIMSAH
 70
     0
  9
$DIMBLK1
  1

  9
$DIMBLK2
  1

  9
$DIMSTYLE
  2
Standard
  9
$DIMCLRD
 70
     0
  9
$DIMCLRE
 70
     0
  9
$DIMCLRT
 70
     0
  9
$DIMTFAC
 40
1.0
  9
$DIMGAP
 40
0.09
  9
$DIMJUST
 70
     0
  9
$DIMSD1
 70
     0
  9
$DIMSD2
 70
     0
  9
$DIMTOLJ
 70
     1
  9
$DIMTZIN
 70
     0
  9
$DIMALTZ
 70
     0
  9
$DIMALTTZ
 70
     0
  9
$DIMUPT
 70
     0
  9
$DIMDEC
 70
     4
  9
$DIMTDEC
 70
     4
  9
$DIMALTU
 70
     2
  9
$DIMALTTD
 70
     2
  9
$DIMTXSTY
  7
STANDARD
  9
$DIMAUNIT
 70
     0
  9
$DIMADEC
 70
     0
  9
$DIMALTRND
 40
0.0
  9
$DIMAZIN
 70
     0
  9
$DIMDSEP
 70
    46
  9
$DIMATFIT
 70
     3
  9
$DIMFRAC
 70
     0
  9
$DIMLDRBLK
  1

  9
$DIMLUNIT
 70
     2
  9
$DIMLWD
 70
    -2
  9
$DIMLWE
 70
    -2
  9
$DIMTMOVE
 70
     0
  9
$LUNITS
 70
     2
  9
$LUPREC
 70
     2
  9
$SKETCHINC
 40
0.0
  9
$FILLETRAD
 40
0.0
  9
$AUNITS
 70
     1
  9
$AUPREC
 70
     2
  9
$MENU
  1
ACAD
  9
$ELEVATION
 40
0.0
  9
$PELEVATION
 40
0.0
  9
$THICKNESS
 40
0.0
  9
$LIMCHECK
 70
     1
  9
$CHAMFERA
 40
0.0
  9
$CHAMFERB
 40
0.0
  9
$CHAMFERC
 40
0.0
  9
$CHAMFERD
 40
0.0
  9
$SKPOLY
 70
     0
  9
$TDCREATE
 40
2311945.483414664
  9
$TDUCREATE
 40
2311945.108414664
  9
$TDUPDATE
 40
2454305.459323819
  9
$TDUUPDATE
 40
2454305.084323819
  9
$TDINDWG
 40
0.0012859838
  9
$TDUSRTIMER
 40
0.0012856250
  9
$USRTIMER
 70
     1
  9
$ANGBASE
 50
0.0
  9
$ANGDIR
 70
     0
  9
$PDMODE
 70
     0
  9
$PDSIZE
 40
0.0
  9
$PLINEWID
 40
0.0
  9
$SPLFRAME
 70
     0
  9
$SPLINETYPE
 70
     6
  9
$SPLINESEGS
 70
     8
  9
$HANDSEED
  5
1B2
  9
$SURFTAB1
 70
     6
  9
$SURFTAB2
 70
     6
  9
$SURFTYPE
 70
     6
  9
$SURFU
 70
     6
  9
$SURFV
 70
     6
  9
$UCSBASE
  2

  9
$UCSNAME
  2

  9
$UCSORG
 10
0.0
 20
0.0
 30
0.0
  9
$UCSXDIR
 10
1.0
 20
0.0
 30
0.0
  9
$UCSYDIR
 10
0.0
 20
1.0
 30
0.0
  9
$UCSORTHOREF
  2

  9
$UCSORTHOVIEW
 70
     0
  9
$UCSORGTOP
 10
0.0
 20
0.0
 30
0.0
  9
$UCSORGBOTTOM
 10
0.0
 20
0.0
 30
0.0
  9
$UCSORGLEFT
 10
0.0
 20
0.0
 30
0.0
  9
$UCSORGRIGHT
 10
0.0
 20
0.0
 30
0.0
  9
$UCSORGFRONT
 10
0.0
 20
0.0
 30
0.0
  9
$UCSORGBACK
 10
0.0
 20
0.0
 30
0.0
  9
$PUCSBASE
  2

  9
$PUCSNAME
  2

  9
$PUCSORG
 10
0.0
 20
0.0
 30
0.0
  9
$PUCSXDIR
 10
1.0
 20
0.0
 30
0.0
  9
$PUCSYDIR
 10
0.0
 20
1.0
 30
0.0
  9
$PUCSORTHOREF
  2

  9
$PUCSORTHOVIEW
 70
     0
  9
$PUCSORGTOP
 10
0.0
 20
0.0
 30
0.0
  9
$PUCSORGBOTTOM
 10
0.0
 20
0.0
 30
0.0
  9
$PUCSORGLEFT
 10
0.0
 20
0.0
 30
0.0
  9
$PUCSORGRIGHT
 10
0.0
 20
0.0
 30
0.0
  9
$PUCSORGFRONT
 10
0.0
 20
0.0
 30
0.0
  9
$PUCSORGBACK
 10
0.0
 20
0.0
 30
0.0
  9
$USERI1
 70
     0
  9
$USERI2
 70
     0
  9
$USERI3
 70
     0
  9
$USERI4
 70
     0
  9
$USERI5
 70
     0
  9
$USERR1
 40
0.0
  9
$USERR2
 40
0.0
  9
$USERR3
 40
0.0
  9
$USERR4
 40
0.0
  9
$USERR5
 40
0.0
  9
$WORLDVIEW
 70
     1
  9
$SHADEDGE
 70
     3
  9
$SHADEDIF
 70
    70
  9
$TILEMODE
 70
     1
  9
$MAXACTVP
 70
    64
  9
$PINSBASE
 10
0.0
 20
0.0
 30
0.0
  9
$PLIMCHECK
 70
     0
  9
$PEXTMIN
 10
0.0
 20
0.0
 30
0.0
  9
$PEXTMAX
 10
297.0
 20
210.0
 30
0.0
  9
$PLIMMIN
 10
0.0
 20
0.0
  9
$PLIMMAX
 10
12.0
 20
9.0
  9
$UNITMODE
 70
     0
  9
$VISRETAIN
 70
     1
  9
$PLINEGEN
 70
     0
  9
$PSLTSCALE
 70
     1
  9
$TREEDEPTH
 70
  3020
  9
$CMLSTYLE
  2
Standard
  9
$CMLJUST
 70
     0
  9
$CMLSCALE
 40
1.0
  9
$PROXYGRAPHICS
 70
     1
  9
$MEASUREMENT
 70
     0
  9
$CELWEIGHT
370
    -1
  9
$ENDCAPS
280
     0
  9
$JOINSTYLE
280
     0
  9
$LWDISPLAY
290
     0
  9
$INSUNITS
 70
     0
  9
$HYPERLINKBASE
  1

  9
$STYLESHEET
  1

  9
$XEDIT
290
     1
  9
$CEPSNTYPE
380
     0
  9
$PSTYLEMODE
290
     1
  9
$FINGERPRINTGUID
  2
{E1B9C0E5-ADD9-4E0C-BF9B-6AC9C8008A8F}
  9
$VERSIONGUID
  2
{C772BC6D-44DB-42F1-8C95-0792A5BCDCAD}
  9
$EXTNAMES
290
     1
  9
$PSVPSCALE
 40
0.0
  9
$OLESTARTUP
290
     0
  0
ENDSEC
  0
SECTION
  2
CLASSES
  0
CLASS
  1
ACDBDICTIONARYWDFLT
  2
AcDbDictionaryWithDefault
  3
AutoCAD 2000
 90
        0
280
     0
281
     0
  0
CLASS
  1
ACDBPLACEHOLDER
  2
AcDbPlaceHolder
  3
AutoCAD 2000
 90
        0
280
     0
281
     0
  0
CLASS
  1
LAYOUT
  2
AcDbLayout
  3
AutoCAD 2000
 90
        0
280
     0
281
     0
  0
ENDSEC
  0
SECTION
  2
TABLES
  0
TABLE
  2
VPORT
  5
8
330
0
100
AcDbSymbolTable
 70
     2
  0
VPORT
  5
1B1
330
8
100
AcDbSymbolTableRecord
100
AcDbViewportTableRecord
  2
*Active
 70
     0
 10
0.0
 20
0.0
 11
1.0
 21
1.0
 12
148.4999999999999
 22
105.0
 13
0.0
 23
0.0
 14
1.0
 24
1.0
 15
0.0
 25
0.0
 16
0.0
 26
0.0
 36
1.0
 17
0.0
 27
0.0
 37
0.0
 40
211.5969581749049
 41
1.527918781725888
 42
50.0
 43
0.0
 44
0.0
 50
0.0
 51
0.0
 71
     0
 72
   100
 73
     1
 74
     1
 75
     0
 76
     0
 77
     0
 78
     0
281
     0
 65
     1
110
0.0
120
0.0
130
0.0
111
1.0
121
0.0
131
0.0
112
0.0
122
1.0
132
0.0
 79
     0
146
0.0
  0
ENDTAB
  0
TABLE
  2
LTYPE
  5
5
330
0
100
AcDbSymbolTable
 70
     7
  0
LTYPE
  5
13
330
5
100
AcDbSymbolTableRecord
100
AcDbLinetypeTableRecord
  2
ByBlock
 70
     0
  3

 72
    65
 73
     0
 40
0.0
  0
LTYPE
  5
14
330
5
100
AcDbSymbolTableRecord
100
AcDbLinetypeTableRecord
  2
ByLayer
 70
     0
  3

 72
    65
 73
     0
 40
0.0
  0
LTYPE
  5
15
330
5
100
AcDbSymbolTableRecord
100
AcDbLinetypeTableRecord
  2
CONTINUOUS
 70
     0
  3
Solid line
 72
    65
 73
     0
 40
0.0
  0
LTYPE
  5
22
330
5
100
AcDbSymbolTableRecord
100
AcDbLinetypeTableRecord
  2
HIDDEN
 70
     0
  3
------------------------
 72
    65
 73
     2
 40
12.6
 49
8.4
 74
     0
 49
-4.2
 74
     0
  0
LTYPE
  5
23
330
5
100
AcDbSymbolTableRecord
100
AcDbLinetypeTableRecord
  2
DOT
 70
     0
  3
････････････････････････
 72
    65
 73
     2
 40
8.0
 49
6.0
 74
     0
 49
-2.0
 74
     0
  0
LTYPE
  5
24
330
5
100
AcDbSymbolTableRecord
100
AcDbLinetypeTableRecord
  2
DASHDOT
 70
     0
  3
--･--･--･--･--･--･--･--
 72
    65
 73
     4
 40
50.5
 49
30.0
 74
     0
 49
-9.0
 74
     0
 49
2.5
 74
     0
 49
-9.0
 74
     0
  0
LTYPE
  5
25
330
5
100
AcDbSymbolTableRecord
100
AcDbLinetypeTableRecord
  2
DIVIDE
 70
     0
  3
--･･--･･--･･--･･--･･--
 72
    65
 73
     6
 40
58.0
 49
30.0
 74
     0
 49
-9.0
 74
     0
 49
2.5
 74
     0
 49
-5.0
 74
     0
 49
2.5
 74
     0
 49
-9.0
 74
     0
  0
LTYPE
  5
26
330
5
100
AcDbSymbolTableRecord
100
AcDbLinetypeTableRecord
  2
ACAD_ISO06W100
 70
     0
  3
____ ... ____ ... ____
 72
    65
 73
     8
 40
37.5
 49
24.0
 74
     0
 49
-3.0
 74
     0
 49
0.5
 74
     0
 49
-3.0
 74
     0
 49
0.5
 74
     0
 49
-3.0
 74
     0
 49
0.5
 74
     0
 49
-3.0
 74
     0
  0
LTYPE
  5
27
330
5
100
AcDbSymbolTableRecord
100
AcDbLinetypeTableRecord
  2
ACAD_ISO14W100
 70
     0
  3
__ . . . __ . . . __ . . . 
 72
    65
 73
     8
 40
25.5
 49
12.0
 74
     0
 49
-3.0
 74
     0
 49
0.5
 74
     0
 49
-3.0
 74
     0
 49
0.5
 74
     0
 49
-3.0
 74
     0
 49
0.5
 74
     0
 49
-3.0
 74
     0
  0
ENDTAB
  0
TABLE
  2
LAYER
  5
2
330
0
100
AcDbSymbolTable
 70
     2
  0
LAYER
  5
10
330
2
100
AcDbSymbolTableRecord
100
AcDbLayerTableRecord
  2
0
 70
     0
 62
     7
  6
CONTINUOUS
370
    -3
390
F
  0
LAYER
  5
28
330
2
100
AcDbSymbolTableRecord
100
AcDbLayerTableRecord
  2
1
 70
     0
 62
     7
  6
CONTINUOUS
370
    -3
390
F
  0
ENDTAB
  0
TABLE
  2
STYLE
  5
3
330
0
100
AcDbSymbolTable
 70
     2
  0
STYLE
  5
11
330
3
100
AcDbSymbolTableRecord
100
AcDbTextStyleTableRecord
  2
STANDARD
 70
     0
 40
0.0
 41
1.0
 50
0.0
 71
     0
 42
0.2
  3
TXT
  4

  0
STYLE
  5
29
330
3
100
AcDbSymbolTableRecord
100
AcDbTextStyleTableRecord
  2
KANJI
 70
     0
 40
0.0
 41
1.0
 50
0.0
 71
     0
 42
0.2
  3
TXT
  4
BIGFONT
  0
ENDTAB
  0
TABLE
  2
VIEW
  5
6
330
0
100
AcDbSymbolTable
 70
     0
  0
ENDTAB
  0
TABLE
  2
UCS
  5
7
330
0
100
AcDbSymbolTable
 70
     0
  0
ENDTAB
  0
TABLE
  2
APPID
  5
9
330
0
100
AcDbSymbolTable
 70
     1
  0
APPID
  5
12
330
9
100
AcDbSymbolTableRecord
100
AcDbRegAppTableRecord
  2
ACAD
 70
     0
  0
ENDTAB
  0
TABLE
  2
DIMSTYLE
  5
A
330
0
100
AcDbSymbolTable
 70
     1
100
AcDbDimStyleTable
 71
     0
  0
DIMSTYLE
105
1AF
330
A
100
AcDbSymbolTableRecord
100
AcDbDimStyleTableRecord
  2
Standard
 70
     0
340
11
  0
ENDTAB
  0
TABLE
  2
BLOCK_RECORD
  5
1
330
0
100
AcDbSymbolTable
 70
     0
  0
BLOCK_RECORD
  5
1E
330
1
100
AcDbSymbolTableRecord
100
AcDbBlockTableRecord
  2
*Model_Space
340
21
  0
BLOCK_RECORD
  5
1A
330
1
100
AcDbSymbolTableRecord
100
AcDbBlockTableRecord
  2
*Paper_Space
340
1D
  0
ENDTAB
  0
ENDSEC
  0
SECTION
  2
BLOCKS
  0
BLOCK
  5
1F
330
1E
100
AcDbEntity
  8
0
100
AcDbBlockBegin
  2
*Model_Space
 70
     0
 10
0.0
 20
0.0
 30
0.0
  3
*Model_Space
  1

  0
ENDBLK
  5
20
330
1E
100
AcDbEntity
  8
0
100
AcDbBlockEnd
  0
BLOCK
  5
1B
330
1A
100
AcDbEntity
 67
     1
  8
0
100
AcDbBlockBegin
  2
*Paper_Space
 70
     0
 10
0.0
 20
0.0
 30
0.0
  3
*Paper_Space
  1

  0
ENDBLK
  5
1C
330
1A
100
AcDbEntity
 67
     1
  8
0
100
AcDbBlockEnd
  0
ENDSEC
  0
SECTION
  2
ENTITIES
  0
LINE
  5
2D
330
1E
100
AcDbEntity
  8
1
  6
Continuous
 62
     7
100
AcDbLine
 10
283.399439
 20
3.290191
 30
0.0
 11
283.399439
 21
193.3901909999999
 31
0.0
  0
LINE
  5
2E
330
1E
100
AcDbEntity
  8
1
  6
Continuous
 62
     7
100
AcDbLine
 10
283.399439
 20
193.3901909999999
 30
0.0
 11
6.299438999999999
 21
193.3901909999999
 31
0.0
  0
LINE
  5
2F
330
1E
100
AcDbEntity
  8
1
  6
Continuous
 62
     7
100
AcDbLine
 10
6.299438999999999
 20
193.3901909999999
 30
0.0
 11
6.299438999999999
 21
3.290191
 31
0.0
  0
LINE
  5
30
330
1E
100
AcDbEntity
  8
1
  6
Continuous
 62
     7
100
AcDbLine
 10
6.299438999999999
 20
3.290191
 30
0.0
 11
283.399439
 21
3.290191
 31
0.0
  0
LINE
  5
31
330
1E
100
AcDbEntity
  8
1
  6
Continuous
 62
     7
100
AcDbLine
 10
93.39943899999999
 20
3.290191
 30
0.0
 11
93.39943899999999
 21
43.290191
 31
0.0
  0
LINE
  5
32
330
1E
100
AcDbEntity
  8
1
  6
Continuous
 62
     7
100
AcDbLine
 10
93.39943899999999
 20
43.290191
 30
0.0
 11
283.399439
 21
43.290191
 31
0.0
  0
LINE
  5
33
330
1E
100
AcDbEntity
  8
1
  6
Continuous
 62
     7
100
AcDbLine
 10
93.39943899999999
 20
33.290191
 30
0.0
 11
283.399439
 21
33.290191
 31
0.0
  0
LINE
  5
34
330
1E
100
AcDbEntity
  8
1
  6
Continuous
 62
     7
100
AcDbLine
 10
93.39943899999999
 20
23.290191
 30
0.0
 11
283.399439
 21
23.290191
 31
0.0
  0
LINE
  5
35
330
1E
100
AcDbEntity
  8
1
  6
Continuous
 62
     7
100
AcDbLine
 10
93.39943899999999
 20
13.290191
 30
0.0
 11
283.399439
 21
13.290191
 31
0.0
  0
LINE
  5
36
330
1E
100
AcDbEntity
  8
1
  6
Continuous
 62
     7
100
AcDbLine
 10
113.3994389999999
 20
43.290191
 30
0.0
 11
113.3994389999999
 21
3.290191
 31
0.0
  0
LINE
  5
37
330
1E
100
AcDbEntity
  8
1
  6
Continuous
 62
     7
100
AcDbLine
 10
133.3994389999999
 20
3.290191
 30
0.0
 11
133.3994389999999
 21
23.290191
 31
0.0
  0
LINE
  5
38
330
1E
100
AcDbEntity
  8
1
  6
Continuous
 62
     7
100
AcDbLine
 10
143.399439
 20
23.290191
 30
0.0
 11
143.399439
 21
43.290191
 31
0.0
  0
LINE
  5
39
330
1E
100
AcDbEntity
  8
1
  6
Continuous
 62
     7
100
AcDbLine
 10
153.399439
 20
3.290191
 30
0.0
 11
153.399439
 21
23.290191
 31
0.0
  0
LINE
  5
3A
330
1E
100
AcDbEntity
  8
1
  6
Continuous
 62
     7
100
AcDbLine
 10
163.3994389999999
 20
23.290191
 30
0.0
 11
163.3994389999999
 21
43.290191
 31
0.0
  0
LINE
  5
3B
330
1E
100
AcDbEntity
  8
1
  6
Continuous
 62
     7
100
AcDbLine
 10
173.399439
 20
23.290191
 30
0.0
 11
173.399439
 21
3.290191
 31
0.0
  0
LINE
  5
3C
330
1E
100
AcDbEntity
  8
1
  6
Continuous
 62
     7
100
AcDbLine
 10
193.399439
 20
3.290191
 30
0.0
 11
193.399439
 21
43.290191
 31
0.0
  0
LINE
  5
3D
330
1E
100
AcDbEntity
  8
1
  6
Continuous
 62
     7
100
AcDbLine
 10
213.399439
 20
43.290191
 30
0.0
 11
213.399439
 21
13.290191
 31
0.0
  0
LINE
  5
3E
330
1E
100
AcDbEntity
  8
1
  6
Continuous
 62
     7
100
AcDbLine
 10
273.399439
 20
3.290191
 30
0.0
 11
273.399439
 21
13.290191
 31
0.0
  0
TEXT
  5
3F
330
1E
100
AcDbEntity
  8
1
  6
Continuous
 62
     7
100
AcDbText
 10
98.199439
 20
37.49019099999999
 30
0.0
 40
5.0
  1
尺度
 41
0.7
  7
KANJI
100
AcDbText
  0
TEXT
  5
40
330
1E
100
AcDbEntity
  8
1
  6
Continuous
 62
     7
100
AcDbText
 10
98.199439
 20
27.190191
 30
0.0
 40
5.0
  1
日付
 41
0.7
  7
KANJI
100
AcDbText
  0
TEXT
  5
41
330
1E
100
AcDbEntity
  8
1
  6
Continuous
 62
     7
100
AcDbText
 10
98.199439
 20
17.090191
 30
0.0
 40
5.0
  1
承認
 41
0.7
  7
KANJI
100
AcDbText
  0
TEXT
  5
42
330
1E
100
AcDbEntity
  8
1
  6
Continuous
 62
     7
100
AcDbText
 10
118.1994389999999
 20
17.090191
 30
0.0
 40
5.0
  1
審査
 41
0.7
  7
KANJI
100
AcDbText
  0
TEXT
  5
43
330
1E
100
AcDbEntity
  8
1
  6
Continuous
 62
     7
100
AcDbText
 10
138.6994389999999
 20
17.090191
 30
0.0
 40
5.0
  1
検図
 41
0.7
  7
KANJI
100
AcDbText
  0
TEXT
  5
44
330
1E
100
AcDbEntity
  8
1
  6
Continuous
 62
     7
100
AcDbText
 10
158.999439
 20
17.090191
 30
0.0
 40
5.0
  1
設計
 41
0.7
  7
KANJI
100
AcDbText
  0
TEXT
  5
45
330
1E
100
AcDbEntity
  8
1
  6
Continuous
 62
     7
100
AcDbText
 10
178.7994389999999
 20
17.090191
 30
0.0
 40
5.0
  1
製図
 41
0.7
  7
KANJI
100
AcDbText
  0
TEXT
  5
46
330
1E
100
AcDbEntity
  8
1
  6
Continuous
 62
     7
100
AcDbText
 10
148.399439
 20
37.39019099999999
 30
0.0
 40
5.0
  1
製番
 41
0.7
  7
KANJI
100
AcDbText
  0
TEXT
  5
47
330
1E
100
AcDbEntity
  8
1
  6
Continuous
 62
     7
100
AcDbText
 10
148.399439
 20
27.09019099999999
 30
0.0
 40
5.0
  1
図番
 41
0.7
  7
KANJI
100
AcDbText
  0
TEXT
  5
48
330
1E
100
AcDbEntity
  8
1
  6
Continuous
 62
     7
100
AcDbText
 10
195.7994389999999
 20
37.39019099999999
 30
0.0
 40
5.0
  1
納入先
 41
0.7
  7
KANJI
100
AcDbText
  0
TEXT
  5
49
330
1E
100
AcDbEntity
  8
1
  6
Continuous
 62
     7
100
AcDbText
 10
198.4994389999999
 20
27.09019099999999
 30
0.0
 40
5.0
  1
名称
 41
0.7
  7
KANJI
100
AcDbText
  0
TEXT
  5
4A
330
1E
100
AcDbEntity
  8
1
  6
Continuous
 62
     7
100
AcDbText
 10
198.399439
 20
17.090191
 30
0.0
 40
5.0
  1
図称
 41
0.7
  7
KANJI
100
AcDbText
  0
TEXT
  5
4B
330
1E
100
AcDbEntity
  8
1
  6
Continuous
 62
     7
100
AcDbText
 10
195.699439
 20
7.590190999999999
 30
0.0
 40
5.0
  1
（株）パーカーコーポレーション
 41
0.7
  7
KANJI
100
AcDbText
  0
TEXT
  5
4C
330
1E
100
AcDbEntity
  8
1
  6
Continuous
 62
     7
100
AcDbText
 10
98.999439
 20
33.690191
 30
0.0
 40
3.0
  1
SCALE
 41
0.5
  7
KANJI
100
AcDbText
  0
TEXT
  5
4D
330
1E
100
AcDbEntity
  8
1
  6
Continuous
 62
     7
100
AcDbText
 10
99.99943899999999
 20
23.290191
 30
0.0
 40
3.0
  1
DATE
 41
0.5
  7
KANJI
100
AcDbText
  0
TEXT
  5
4E
330
1E
100
AcDbEntity
  8
1
  6
Continuous
 62
     7
100
AcDbText
 10
94.699439
 20
13.290191
 30
0.0
 40
3.0
  1
APPROVED
 41
0.5
  7
KANJI
100
AcDbText
  0
TEXT
  5
4F
330
1E
100
AcDbEntity
  8
1
  6
Continuous
 62
     7
100
AcDbText
 10
108.5994389999999
 20
13.290191
 30
0.0
 40
3.0
  1
BY
 41
0.5
  7
KANJI
100
AcDbText
  0
TEXT
  5
50
330
1E
100
AcDbEntity
  8
1
  6
Continuous
 62
     7
100
AcDbText
 10
114.2994389999999
 20
13.290191
 30
0.0
 40
3.0
  1
INSPECTED
 41
0.5
  7
KANJI
100
AcDbText
  0
TEXT
  5
51
330
1E
100
AcDbEntity
  8
1
  6
Continuous
 62
     7
100
AcDbText
 10
129.0994389999999
 20
13.290191
 30
0.0
 40
3.0
  1
BY
 41
0.5
  7
KANJI
100
AcDbText
  0
TEXT
  5
52
330
1E
100
AcDbEntity
  8
1
  6
Continuous
 62
     7
100
AcDbText
 10
136.0994389999999
 20
13.290191
 30
0.0
 40
3.0
  1
CHECKED
 41
0.5
  7
KANJI
100
AcDbText
  0
TEXT
  5
53
330
1E
100
AcDbEntity
  8
1
  6
Continuous
 62
     7
100
AcDbText
 10
147.7994389999999
 20
13.290191
 30
0.0
 40
3.0
  1
BY
 41
0.5
  7
KANJI
100
AcDbText
  0
TEXT
  5
54
330
1E
100
AcDbEntity
  8
1
  6
Continuous
 62
     7
100
AcDbText
 10
153.9994389999999
 20
13.290191
 30
0.0
 40
3.0
  1
DESINGNED
 41
0.5
  7
KANJI
100
AcDbText
  0
TEXT
  5
55
330
1E
100
AcDbEntity
  8
1
  6
Continuous
 62
     7
100
AcDbText
 10
168.8994389999999
 20
13.290191
 30
0.0
 40
3.0
  1
BY
 41
0.5
  7
KANJI
100
AcDbText
  0
TEXT
  5
56
330
1E
100
AcDbEntity
  8
1
  6
Continuous
 62
     7
100
AcDbText
 10
177.2994389999999
 20
13.290191
 30
0.0
 40
3.0
  1
DRAWN
 41
0.5
  7
KANJI
100
AcDbText
  0
TEXT
  5
57
330
1E
100
AcDbEntity
  8
1
  6
Continuous
 62
     7
100
AcDbText
 10
186.399439
 20
13.290191
 30
0.0
 40
3.0
  1
BY
 41
0.5
  7
KANJI
100
AcDbText
  0
TEXT
  5
58
330
1E
100
AcDbEntity
  8
1
  6
Continuous
 62
     7
100
AcDbText
 10
146.499439
 20
33.290191
 30
0.0
 40
3.0
  1
WORK
 41
0.5
  7
KANJI
100
AcDbText
  0
TEXT
  5
59
330
1E
100
AcDbEntity
  8
1
  6
Continuous
 62
     7
100
AcDbText
 10
154.3994389999999
 20
33.290191
 30
0.0
 40
3.0
  1
No.
 41
0.576923
  7
KANJI
100
AcDbText
  0
TEXT
  5
5A
330
1E
100
AcDbEntity
  8
1
  6
Continuous
 62
     7
100
AcDbText
 10
148.4994389999999
 20
23.290191
 30
0.0
 40
3.0
  1
DWG
 41
0.5
  7
KANJI
100
AcDbText
  0
TEXT
  5
5B
330
1E
100
AcDbEntity
  8
1
  6
Continuous
 62
     7
100
AcDbText
 10
153.399439
 20
23.290191
 30
0.0
 40
3.0
  1
No.
 41
0.576923
  7
KANJI
100
AcDbText
  0
TEXT
  5
5C
330
1E
100
AcDbEntity
  8
1
  6
Continuous
 62
     7
100
AcDbText
 10
197.0994389999999
 20
33.290191
 30
0.0
 40
3.0
  1
CUSTOMER
 41
0.5
  7
KANJI
100
AcDbText
  0
TEXT
  5
5D
330
1E
100
AcDbEntity
  8
1
  6
Continuous
 62
     7
100
AcDbText
 10
199.899439
 20
23.290191
 30
0.0
 40
3.0
  1
TITLE
 41
0.5
  7
KANJI
100
AcDbText
  0
TEXT
  5
5E
330
1E
100
AcDbEntity
  8
1
  6
Continuous
 62
     7
100
AcDbText
 10
198.4994389999999
 20
13.290191
 30
0.0
 40
3.0
  1
DWG
 41
0.5
  7
KANJI
100
AcDbText
  0
TEXT
  5
5F
330
1E
100
AcDbEntity
  8
1
  6
Continuous
 62
     7
100
AcDbText
 10
203.7994389999999
 20
13.290191
 30
0.0
 40
3.0
  1
NAME
 41
0.5
  7
KANJI
100
AcDbText
  0
TEXT
  5
60
330
1E
100
AcDbEntity
  8
1
  6
Continuous
 62
     7
100
AcDbText
 10
210.499439
 20
3.290191
 30
0.0
 40
3.0
  1
PARKER
 41
0.777778
  7
KANJI
100
AcDbText
  0
TEXT
  5
61
330
1E
100
AcDbEntity
  8
1
  6
Continuous
 62
     7
100
AcDbText
 10
228.099439
 20
3.290191
 30
0.0
 40
3.0
  1
CORPORATION
 41
0.80303
  7
KANJI
100
AcDbText
  0
ARC
  5
62
330
1E
100
AcDbEntity
  8
1
  6
Continuous
 62
     7
100
AcDbCircle
 10
55.93385699999999
 20
109.4320629999999
 30
0.0
 40
6.5
100
AcDbArc
 50
90.0
 51
270.0
  0
ARC
  5
63
330
1E
100
AcDbEntity
  8
1
  6
Continuous
 62
     7
100
AcDbCircle
 10
55.93385699999999
 20
109.4320629999999
 30
0.0
 40
7.599999999999999
100
AcDbArc
 50
90.0
 51
270.0
  0
ARC
  5
64
330
1E
100
AcDbEntity
  8
1
  6
Continuous
 62
     7
100
AcDbCircle
 10
55.93385699999999
 20
109.4320629999999
 30
0.0
 40
11.4
100
AcDbArc
 50
90.0
 51
270.0
  0
LINE
  5
65
330
1E
100
AcDbEntity
  8
1
  6
Continuous
 62
     7
100
AcDbLine
 10
55.93385699999999
 20
89.832063
 30
0.0
 11
34.333857
 21
89.832063
 31
0.0
  0
LINE
  5
66
330
1E
100
AcDbEntity
  8
1
  6
Continuous
 62
     7
100
AcDbLine
 10
34.333857
 20
88.232063
 30
0.0
 11
55.93385699999999
 21
88.232063
 31
0.0
  0
LINE
  5
67
330
1E
100
AcDbEntity
  8
1
  6
Continuous
 62
     7
100
AcDbLine
 10
55.13385699999999
 20
98.05872
 30
0.0
 11
55.13385699999999
 21
89.832063
 31
0.0
  0
LINE
  5
68
330
1E
100
AcDbEntity
  8
1
  6
Continuous
 62
     7
100
AcDbLine
 10
39.133857
 20
121.832063
 30
0.0
 11
55.93385699999999
 21
121.832063
 31
0.0
  0
ARC
  5
69
330
1E
100
AcDbEntity
  8
1
  6
Continuous
 62
     7
100
AcDbCircle
 10
55.93385699999999
 20
133.0320629999999
 30
0.0
 40
7.4
100
AcDbArc
 50
90.0
 51
270.0
  0
LINE
  5
6A
330
1E
100
AcDbEntity
  8
1
  6
Continuous
 62
     7
100
AcDbLine
 10
52.233857
 20
139.440651
 30
0.0
 11
55.93385699999999
 21
139.440651
 31
0.0
  0
LINE
  5
6B
330
1E
100
AcDbEntity
  8
1
  6
Continuous
 62
     7
100
AcDbLine
 10
52.233857
 20
139.440651
 30
0.0
 11
48.533857
 21
133.0320629999999
 31
0.0
  0
LINE
  5
6C
330
1E
100
AcDbEntity
  8
1
  6
Continuous
 62
     7
100
AcDbLine
 10
48.533857
 20
133.0320629999999
 30
0.0
 11
52.233857
 21
126.6234749999999
 31
0.0
  0
LINE
  5
6D
330
1E
100
AcDbEntity
  8
1
  6
Continuous
 62
     7
100
AcDbLine
 10
52.233857
 20
126.6234749999999
 30
0.0
 11
55.93385699999999
 21
126.6234749999999
 31
0.0
  0
LINE
  5
6E
330
1E
100
AcDbEntity
  8
1
  6
Continuous
 62
     7
100
AcDbLine
 10
39.133857
 20
127.8720629999999
 30
0.0
 11
50.629669
 21
127.8720629999999
 31
0.0
  0
LINE
  5
6F
330
1E
100
AcDbEntity
  8
1
  6
Continuous
 62
     7
100
AcDbLine
 10
55.93385699999999
 20
120.832063
 30
0.0
 11
39.133857
 21
120.832063
 31
0.0
  0
LINE
  5
70
330
1E
100
AcDbEntity
  8
1
  6
Continuous
 62
     7
100
AcDbLine
 10
40.733857
 20
127.8720629999999
 30
0.0
 11
40.733857
 21
132.5920629999999
 31
0.0
  0
ARC
  5
71
330
1E
100
AcDbEntity
  8
1
  6
Continuous
 62
     7
100
AcDbCircle
 10
55.93385699999999
 20
111.4320629999999
 30
0.0
 40
23.19999999999999
100
AcDbArc
 50
136.397181
 51
201.2273129999999
  0
LINE
  5
72
330
1E
100
AcDbEntity
  8
1
  6
Continuous
 62
     7
100
AcDbLine
 10
34.333857
 20
88.232063
 30
0.0
 11
34.333857
 21
103.0320629999999
 31
0.0
  0
ARC
  5
73
330
1E
100
AcDbEntity
  8
1
  6
Continuous
 62
     7
100
AcDbCircle
 10
55.93385699999999
 20
133.0320629999999
 30
0.0
 40
4.799999999999999
100
AcDbArc
 50
90.0
 51
270.0
  0
ARC
  5
74
330
1E
100
AcDbEntity
  8
1
  6
Continuous
 62
     7
100
AcDbCircle
 10
55.93385699999999
 20
133.0320629999999
 30
0.0
 40
4.2
100
AcDbArc
 50
90.0
 51
270.0
  0
ARC
  5
75
330
1E
100
AcDbEntity
  8
1
  6
Continuous
 62
     7
100
AcDbCircle
 10
55.93385699999999
 20
133.0320629999999
 30
0.0
 40
3.799999999999999
100
AcDbArc
 50
90.0
 51
270.0
  0
ARC
  5
76
330
1E
100
AcDbEntity
  8
1
  6
Continuous
 62
     7
100
AcDbCircle
 10
57.301965
 20
121.591786
 30
0.0
 40
19.88738999999999
100
AcDbArc
 50
93.94465
 51
146.4181129999999
  0
ARC
  5
77
330
1E
100
AcDbEntity
  8
1
  6
Continuous
 62
     7
100
AcDbCircle
 10
58.09571700000001
 20
118.883826
 30
0.0
 40
24.244813
100
AcDbArc
 50
95.115742
 51
141.4532239999999
  0
CIRCLE
  5
78
330
1E
100
AcDbEntity
  8
1
  6
Continuous
 62
     7
100
AcDbCircle
 10
38.11633
 20
112.9831479999999
 30
0.0
 40
0.5
  0
LINE
  5
79
330
1E
100
AcDbEntity
  8
1
  6
DASHDOT
 62
     7
100
AcDbLine
 10
41.81794899999999
 20
109.4320629999999
 30
0.0
 11
55.93385699999999
 21
109.4320629999999
 31
0.0
  0
ARC
  5
7A
330
1E
100
AcDbEntity
  8
1
  6
Continuous
 62
     7
100
AcDbCircle
 10
55.93385699999999
 20
109.4320629999999
 30
0.0
 40
6.5
100
AcDbArc
 50
270.0
 51
90.0
  0
ARC
  5
7B
330
1E
100
AcDbEntity
  8
1
  6
Continuous
 62
     7
100
AcDbCircle
 10
55.93385699999999
 20
109.4320629999999
 30
0.0
 40
7.599999999999999
100
AcDbArc
 50
270.0
 51
90.0
  0
ARC
  5
7C
330
1E
100
AcDbEntity
  8
1
  6
Continuous
 62
     7
100
AcDbCircle
 10
55.93385699999999
 20
109.4320629999999
 30
0.0
 40
11.4
100
AcDbArc
 50
270.0
 51
90.0
  0
LINE
  5
7D
330
1E
100
AcDbEntity
  8
1
  6
Continuous
 62
     7
100
AcDbLine
 10
55.93385699999999
 20
89.832063
 30
0.0
 11
77.53385699999999
 21
89.832063
 31
0.0
  0
LINE
  5
7E
330
1E
100
AcDbEntity
  8
1
  6
Continuous
 62
     7
100
AcDbLine
 10
77.53385699999999
 20
88.232063
 30
0.0
 11
55.93385699999999
 21
88.232063
 31
0.0
  0
LINE
  5
7F
330
1E
100
AcDbEntity
  8
1
  6
Continuous
 62
     7
100
AcDbLine
 10
56.73385699999999
 20
98.05872
 30
0.0
 11
56.73385699999999
 21
89.832063
 31
0.0
  0
LINE
  5
80
330
1E
100
AcDbEntity
  8
1
  6
Continuous
 62
     7
100
AcDbLine
 10
72.733857
 20
121.832063
 30
0.0
 11
55.93385699999999
 21
121.832063
 31
0.0
  0
ARC
  5
81
330
1E
100
AcDbEntity
  8
1
  6
Continuous
 62
     7
100
AcDbCircle
 10
55.93385699999999
 20
133.0320629999999
 30
0.0
 40
7.4
100
AcDbArc
 50
270.0
 51
90.0
  0
LINE
  5
82
330
1E
100
AcDbEntity
  8
1
  6
Continuous
 62
     7
100
AcDbLine
 10
59.63385699999999
 20
139.440651
 30
0.0
 11
55.93385699999999
 21
139.440651
 31
0.0
  0
LINE
  5
83
330
1E
100
AcDbEntity
  8
1
  6
Continuous
 62
     7
100
AcDbLine
 10
59.63385699999999
 20
139.440651
 30
0.0
 11
63.333857
 21
133.0320629999999
 31
0.0
  0
LINE
  5
84
330
1E
100
AcDbEntity
  8
1
  6
Continuous
 62
     7
100
AcDbLine
 10
63.333857
 20
133.0320629999999
 30
0.0
 11
59.63385699999999
 21
126.6234749999999
 31
0.0
  0
LINE
  5
85
330
1E
100
AcDbEntity
  8
1
  6
Continuous
 62
     7
100
AcDbLine
 10
59.63385699999999
 20
126.6234749999999
 30
0.0
 11
55.93385699999999
 21
126.6234749999999
 31
0.0
  0
LINE
  5
86
330
1E
100
AcDbEntity
  8
1
  6
Continuous
 62
     7
100
AcDbLine
 10
72.733857
 20
127.8720629999999
 30
0.0
 11
61.238044
 21
127.8720629999999
 31
0.0
  0
LINE
  5
87
330
1E
100
AcDbEntity
  8
1
  6
Continuous
 62
     7
100
AcDbLine
 10
55.93385699999999
 20
120.832063
 30
0.0
 11
72.733857
 21
120.832063
 31
0.0
  0
LINE
  5
88
330
1E
100
AcDbEntity
  8
1
  6
Continuous
 62
     7
100
AcDbLine
 10
71.13385699999999
 20
127.8720629999999
 30
0.0
 11
71.13385699999999
 21
132.5920629999999
 31
0.0
  0
ARC
  5
89
330
1E
100
AcDbEntity
  8
1
  6
Continuous
 62
     7
100
AcDbCircle
 10
55.93385699999999
 20
111.4320629999999
 30
0.0
 40
23.19999999999999
100
AcDbArc
 50
338.772687
 51
43.602819
  0
LINE
  5
8A
330
1E
100
AcDbEntity
  8
1
  6
Continuous
 62
     7
100
AcDbLine
 10
77.53385699999999
 20
88.232063
 30
0.0
 11
77.53385699999999
 21
103.0320629999999
 31
0.0
  0
ARC
  5
8B
330
1E
100
AcDbEntity
  8
1
  6
Continuous
 62
     7
100
AcDbCircle
 10
55.93385699999999
 20
133.0320629999999
 30
0.0
 40
4.799999999999999
100
AcDbArc
 50
270.0
 51
90.0
  0
ARC
  5
8C
330
1E
100
AcDbEntity
  8
1
  6
Continuous
 62
     7
100
AcDbCircle
 10
55.93385699999999
 20
133.0320629999999
 30
0.0
 40
4.2
100
AcDbArc
 50
270.0
 51
90.0
  0
ARC
  5
8D
330
1E
100
AcDbEntity
  8
1
  6
Continuous
 62
     7
100
AcDbCircle
 10
55.93385699999999
 20
133.0320629999999
 30
0.0
 40
3.799999999999999
100
AcDbArc
 50
270.0
 51
90.0
  0
ARC
  5
8E
330
1E
100
AcDbEntity
  8
1
  6
Continuous
 62
     7
100
AcDbCircle
 10
54.565748
 20
121.591786
 30
0.0
 40
19.88738999999999
100
AcDbArc
 50
33.581887
 51
86.05535000000001
  0
ARC
  5
8F
330
1E
100
AcDbEntity
  8
1
  6
Continuous
 62
     7
100
AcDbCircle
 10
53.77199599999999
 20
118.883826
 30
0.0
 40
24.244813
100
AcDbArc
 50
38.546776
 51
84.88425799999999
  0
CIRCLE
  5
90
330
1E
100
AcDbEntity
  8
1
  6
Continuous
 62
     7
100
AcDbCircle
 10
73.75138299999999
 20
112.9831479999999
 30
0.0
 40
0.5
  0
LINE
  5
91
330
1E
100
AcDbEntity
  8
1
  6
DASHDOT
 62
     7
100
AcDbLine
 10
70.049764
 20
109.4320629999999
 30
0.0
 11
55.93385699999999
 21
109.4320629999999
 31
0.0
  0
LINE
  5
92
330
1E
100
AcDbEntity
  8
1
  6
Continuous
 62
     7
100
AcDbLine
 10
50.235032
 20
119.4320629999999
 30
0.0
 11
39.071684
 21
119.4320629999999
 31
0.0
  0
LINE
  5
93
330
1E
100
AcDbEntity
  8
1
  6
Continuous
 62
     7
100
AcDbLine
 10
72.733857
 20
119.4320629999999
 30
0.0
 11
72.733857
 21
133.9920629999999
 31
0.0
  0
LINE
  5
94
330
1E
100
AcDbEntity
  8
1
  6
Continuous
 62
     7
100
AcDbLine
 10
39.133857
 20
119.4320629999999
 30
0.0
 11
39.133857
 21
133.9920629999999
 31
0.0
  0
LINE
  5
95
330
1E
100
AcDbEntity
  8
1
  6
Continuous
 62
     7
100
AcDbLine
 10
61.468128
 20
119.4320629999999
 30
0.0
 11
72.733857
 21
119.4320629999999
 31
0.0
  0
LINE
  5
96
330
1E
100
AcDbEntity
  8
1
  6
DASHDOT
 62
     7
100
AcDbLine
 10
45.13385699999999
 20
91.46333400000001
 30
0.0
 11
45.13385699999999
 21
87.02949
 31
0.0
  0
LINE
  5
97
330
1E
100
AcDbEntity
  8
1
  6
DASHDOT
 62
     7
100
AcDbLine
 10
38.333857
 20
91.46333400000001
 30
0.0
 11
38.333857
 21
87.12138399999998
 31
0.0
  0
LINE
  5
98
330
1E
100
AcDbEntity
  8
1
  6
Continuous
 62
     7
100
AcDbLine
 10
43.833857
 20
89.832063
 30
0.0
 11
43.833857
 21
88.232063
 31
0.0
  0
LINE
  5
99
330
1E
100
AcDbEntity
  8
1
  6
Continuous
 62
     7
100
AcDbLine
 10
46.433857
 20
89.832063
 30
0.0
 11
46.433857
 21
88.232063
 31
0.0
  0
LINE
  5
9A
330
1E
100
AcDbEntity
  8
1
  6
Continuous
 62
     7
100
AcDbLine
 10
39.63385699999999
 20
89.832063
 30
0.0
 11
39.63385699999999
 21
88.232063
 31
0.0
  0
LINE
  5
9B
330
1E
100
AcDbEntity
  8
1
  6
Continuous
 62
     7
100
AcDbLine
 10
37.033857
 20
89.832063
 30
0.0
 11
37.033857
 21
88.232063
 31
0.0
  0
LINE
  5
9C
330
1E
100
AcDbEntity
  8
1
  6
Continuous
 62
     7
100
AcDbLine
 10
43.762284
 20
88.232063
 30
0.0
 11
43.833857
 21
88.303636
 31
0.0
  0
LINE
  5
9D
330
1E
100
AcDbEntity
  8
1
  6
Continuous
 62
     7
100
AcDbLine
 10
43.055177
 20
88.232063
 30
0.0
 11
43.833857
 21
89.01074200000001
 31
0.0
  0
LINE
  5
9E
330
1E
100
AcDbEntity
  8
1
  6
Continuous
 62
     7
100
AcDbLine
 10
42.34806999999999
 20
88.232063
 30
0.0
 11
43.833857
 21
89.71784900000001
 31
0.0
  0
LINE
  5
9F
330
1E
100
AcDbEntity
  8
1
  6
Continuous
 62
     7
100
AcDbLine
 10
41.64096299999999
 20
88.232063
 30
0.0
 11
43.24096299999999
 21
89.832063
 31
0.0
  0
LINE
  5
A0
330
1E
100
AcDbEntity
  8
1
  6
Continuous
 62
     7
100
AcDbLine
 10
40.933857
 20
88.232063
 30
0.0
 11
42.53385699999999
 21
89.832063
 31
0.0
  0
LINE
  5
A1
330
1E
100
AcDbEntity
  8
1
  6
Continuous
 62
     7
100
AcDbLine
 10
40.22675
 20
88.232063
 30
0.0
 11
41.82674999999999
 21
89.832063
 31
0.0
  0
LINE
  5
A2
330
1E
100
AcDbEntity
  8
1
  6
Continuous
 62
     7
100
AcDbLine
 10
39.63385699999999
 20
88.34627600000001
 30
0.0
 11
41.11964299999999
 21
89.832063
 31
0.0
  0
LINE
  5
A3
330
1E
100
AcDbEntity
  8
1
  6
Continuous
 62
     7
100
AcDbLine
 10
39.63385699999999
 20
89.053383
 30
0.0
 11
40.412536
 21
89.832063
 31
0.0
  0
LINE
  5
A4
330
1E
100
AcDbEntity
  8
1
  6
Continuous
 62
     7
100
AcDbLine
 10
39.63385699999999
 20
89.76049000000001
 30
0.0
 11
39.70542899999999
 21
89.832063
 31
0.0
  0
ARC
  5
A5
330
1E
100
AcDbEntity
  8
1
  6
Continuous
 62
     7
100
AcDbCircle
 10
34.84399
 20
89.03206299999999
 30
0.0
 40
0.946278
100
AcDbArc
 50
302.2832779999999
 51
57.716722
  0
ARC
  5
A6
330
1E
100
AcDbEntity
  8
1
  6
Continuous
 62
     7
100
AcDbCircle
 10
48.788774
 20
89.03206299999999
 30
0.0
 40
0.9225559999999999
100
AcDbArc
 50
119.870135
 51
243.979188
  0
LINE
  5
A7
330
1E
100
AcDbEntity
  8
1
  6
Continuous
 62
     7
100
AcDbLine
 10
47.995796
 20
88.232063
 30
0.0
 11
48.139949
 21
88.376216
 31
0.0
  0
LINE
  5
A8
330
1E
100
AcDbEntity
  8
1
  6
Continuous
 62
     7
100
AcDbLine
 10
47.288689
 20
88.232063
 30
0.0
 11
47.888255
 21
88.831628
 31
0.0
  0
LINE
  5
A9
330
1E
100
AcDbEntity
  8
1
  6
Continuous
 62
     7
100
AcDbLine
 10
46.58158199999999
 20
88.232063
 30
0.0
 11
48.181582
 21
89.832063
 31
0.0
  0
LINE
  5
AA
330
1E
100
AcDbEntity
  8
1
  6
Continuous
 62
     7
100
AcDbLine
 10
46.433857
 20
88.79144399999999
 30
0.0
 11
47.47447499999999
 21
89.832063
 31
0.0
  0
LINE
  5
AB
330
1E
100
AcDbEntity
  8
1
  6
Continuous
 62
     7
100
AcDbLine
 10
46.433857
 20
89.498551
 30
0.0
 11
46.767369
 21
89.832063
 31
0.0
  0
LINE
  5
AC
330
1E
100
AcDbEntity
  8
1
  6
Continuous
 62
     7
100
AcDbLine
 10
36.80584299999999
 20
88.232063
 30
0.0
 11
37.033857
 21
88.460076
 31
0.0
  0
LINE
  5
AD
330
1E
100
AcDbEntity
  8
1
  6
Continuous
 62
     7
100
AcDbLine
 10
36.09873599999999
 20
88.232063
 30
0.0
 11
37.033857
 21
89.16718299999999
 31
0.0
  0
LINE
  5
AE
330
1E
100
AcDbEntity
  8
1
  6
Continuous
 62
     7
100
AcDbLine
 10
35.39162899999999
 20
88.232063
 30
0.0
 11
36.99162899999999
 21
89.832063
 31
0.0
  0
LINE
  5
AF
330
1E
100
AcDbEntity
  8
1
  6
Continuous
 62
     7
100
AcDbLine
 10
35.751751
 20
89.299291
 30
0.0
 11
36.28452199999999
 21
89.832063
 31
0.0
  0
LINE
  5
B0
330
1E
100
AcDbEntity
  8
1
  6
Continuous
 62
     7
100
AcDbLine
 10
35.478994
 20
89.73364100000001
 30
0.0
 11
35.57741599999999
 21
89.832063
 31
0.0
  0
LINE
  5
B1
330
1E
100
AcDbEntity
  8
1
  6
DASHDOT
 62
     7
100
AcDbLine
 10
66.733857
 20
86.600791
 30
0.0
 11
66.733857
 21
91.034635
 31
0.0
  0
LINE
  5
B2
330
1E
100
AcDbEntity
  8
1
  6
DASHDOT
 62
     7
100
AcDbLine
 10
73.533857
 20
86.600791
 30
0.0
 11
73.533857
 21
90.942742
 31
0.0
  0
LINE
  5
B3
330
1E
100
AcDbEntity
  8
1
  6
Continuous
 62
     7
100
AcDbLine
 10
68.03385699999999
 20
88.232063
 30
0.0
 11
68.03385699999999
 21
89.832063
 31
0.0
  0
LINE
  5
B4
330
1E
100
AcDbEntity
  8
1
  6
Continuous
 62
     7
100
AcDbLine
 10
65.43385699999999
 20
88.232063
 30
0.0
 11
65.43385699999999
 21
89.832063
 31
0.0
  0
LINE
  5
B5
330
1E
100
AcDbEntity
  8
1
  6
Continuous
 62
     7
100
AcDbLine
 10
72.233857
 20
88.232063
 30
0.0
 11
72.233857
 21
89.832063
 31
0.0
  0
LINE
  5
B6
330
1E
100
AcDbEntity
  8
1
  6
Continuous
 62
     7
100
AcDbLine
 10
74.83385699999999
 20
88.232063
 30
0.0
 11
74.83385699999999
 21
89.832063
 31
0.0
  0
LINE
  5
B7
330
1E
100
AcDbEntity
  8
1
  6
Continuous
 62
     7
100
AcDbLine
 10
68.105429
 20
89.832063
 30
0.0
 11
68.03385699999999
 21
89.76049000000001
 31
0.0
  0
LINE
  5
B8
330
1E
100
AcDbEntity
  8
1
  6
Continuous
 62
     7
100
AcDbLine
 10
68.81253599999999
 20
89.832063
 30
0.0
 11
68.03385699999999
 21
89.053383
 31
0.0
  0
LINE
  5
B9
330
1E
100
AcDbEntity
  8
1
  6
Continuous
 62
     7
100
AcDbLine
 10
69.519643
 20
89.832063
 30
0.0
 11
68.03385699999999
 21
88.34627600000001
 31
0.0
  0
LINE
  5
BA
330
1E
100
AcDbEntity
  8
1
  6
Continuous
 62
     7
100
AcDbLine
 10
70.22674999999999
 20
89.832063
 30
0.0
 11
68.62675
 21
88.232063
 31
0.0
  0
LINE
  5
BB
330
1E
100
AcDbEntity
  8
1
  6
Continuous
 62
     7
100
AcDbLine
 10
70.93385699999998
 20
89.832063
 30
0.0
 11
69.33385699999999
 21
88.232063
 31
0.0
  0
LINE
  5
BC
330
1E
100
AcDbEntity
  8
1
  6
Continuous
 62
     7
100
AcDbLine
 10
71.640963
 20
89.832063
 30
0.0
 11
70.040963
 21
88.232063
 31
0.0
  0
LINE
  5
BD
330
1E
100
AcDbEntity
  8
1
  6
Continuous
 62
     7
100
AcDbLine
 10
72.233857
 20
89.71784900000001
 30
0.0
 11
70.74806999999999
 21
88.232063
 31
0.0
  0
LINE
  5
BE
330
1E
100
AcDbEntity
  8
1
  6
Continuous
 62
     7
100
AcDbLine
 10
72.233857
 20
89.01074200000001
 30
0.0
 11
71.455177
 21
88.232063
 31
0.0
  0
LINE
  5
BF
330
1E
100
AcDbEntity
  8
1
  6
Continuous
 62
     7
100
AcDbLine
 10
72.233857
 20
88.303636
 30
0.0
 11
72.162284
 21
88.232063
 31
0.0
  0
ARC
  5
C0
330
1E
100
AcDbEntity
  8
1
  6
Continuous
 62
     7
100
AcDbCircle
 10
77.023723
 20
89.03206299999999
 30
0.0
 40
0.946278
100
AcDbArc
 50
122.2832779999999
 51
237.716722
  0
ARC
  5
C1
330
1E
100
AcDbEntity
  8
1
  6
Continuous
 62
     7
100
AcDbCircle
 10
63.07893899999999
 20
89.03206299999999
 30
0.0
 40
0.9225559999999999
100
AcDbArc
 50
299.8701349999999
 51
63.979188
  0
LINE
  5
C2
330
1E
100
AcDbEntity
  8
1
  6
Continuous
 62
     7
100
AcDbLine
 10
63.871917
 20
89.832063
 30
0.0
 11
63.727764
 21
89.68791000000001
 31
0.0
  0
LINE
  5
C3
330
1E
100
AcDbEntity
  8
1
  6
Continuous
 62
     7
100
AcDbLine
 10
64.579024
 20
89.832063
 30
0.0
 11
63.97945799999999
 21
89.23249699999999
 31
0.0
  0
LINE
  5
C4
330
1E
100
AcDbEntity
  8
1
  6
Continuous
 62
     7
100
AcDbLine
 10
65.28613100000001
 20
89.832063
 30
0.0
 11
63.68613100000001
 21
88.232063
 31
0.0
  0
LINE
  5
C5
330
1E
100
AcDbEntity
  8
1
  6
Continuous
 62
     7
100
AcDbLine
 10
65.43385699999999
 20
89.27268199999998
 30
0.0
 11
64.393238
 21
88.232063
 31
0.0
  0
LINE
  5
C6
330
1E
100
AcDbEntity
  8
1
  6
Continuous
 62
     7
100
AcDbLine
 10
65.43385699999999
 20
88.56557499999999
 30
0.0
 11
65.10034399999999
 21
88.232063
 31
0.0
  0
LINE
  5
C7
330
1E
100
AcDbEntity
  8
1
  6
Continuous
 62
     7
100
AcDbLine
 10
75.06187
 20
89.832063
 30
0.0
 11
74.83385699999999
 21
89.604049
 31
0.0
  0
LINE
  5
C8
330
1E
100
AcDbEntity
  8
1
  6
Continuous
 62
     7
100
AcDbLine
 10
75.768977
 20
89.832063
 30
0.0
 11
74.83385699999999
 21
88.896942
 31
0.0
  0
LINE
  5
C9
330
1E
100
AcDbEntity
  8
1
  6
Continuous
 62
     7
100
AcDbLine
 10
76.476084
 20
89.832063
 30
0.0
 11
74.87608399999999
 21
88.232063
 31
0.0
  0
LINE
  5
CA
330
1E
100
AcDbEntity
  8
1
  6
Continuous
 62
     7
100
AcDbLine
 10
76.115962
 20
88.76483399999999
 30
0.0
 11
75.583191
 21
88.232063
 31
0.0
  0
LINE
  5
CB
330
1E
100
AcDbEntity
  8
1
  6
Continuous
 62
     7
100
AcDbLine
 10
76.38871899999999
 20
88.330485
 30
0.0
 11
76.290297
 21
88.232063
 31
0.0
  0
LINE
  5
CC
330
1E
100
AcDbEntity
  8
1
  6
DASHDOT
 62
     7
100
AcDbLine
 10
55.93385699999999
 20
83.925444
 30
0.0
 11
55.93385699999999
 21
147.1305769999999
 31
0.0
  0
LINE
  5
CD
330
1E
100
AcDbEntity
  8
1
  6
Continuous
 62
     7
100
AcDbLine
 10
34.333857
 20
65.63023100000001
 30
0.0
 11
77.53385699999999
 21
65.63023100000001
 31
0.0
  0
LINE
  5
CE
330
1E
100
AcDbEntity
  8
1
  6
Continuous
 62
     7
100
AcDbLine
 10
34.333857
 20
63.63023100000001
 30
0.0
 11
34.333857
 21
86.23206299999999
 31
0.0
  0
LINE
  5
CF
330
1E
100
AcDbEntity
  8
1
  6
Continuous
 62
     7
100
AcDbLine
 10
77.53385699999999
 20
63.63023100000001
 30
0.0
 11
77.53385699999999
 21
86.23206299999999
 31
0.0
  0
LINE
  5
D0
330
1E
100
AcDbEntity
  8
1
  6
Continuous
 62
     7
100
AcDbLine
 10
34.333857
 20
65.63023100000001
 30
0.0
 11
37.231634
 21
66.406688
 31
0.0
  0
LINE
  5
D1
330
1E
100
AcDbEntity
  8
1
  6
Continuous
 62
     7
100
AcDbLine
 10
34.333857
 20
65.63023100000001
 30
0.0
 11
37.231634
 21
64.853774
 31
0.0
  0
LINE
  5
D2
330
1E
100
AcDbEntity
  8
1
  6
Continuous
 62
     7
100
AcDbLine
 10
77.53385699999999
 20
65.63023100000001
 30
0.0
 11
74.63607900000001
 21
64.853774
 31
0.0
  0
LINE
  5
D3
330
1E
100
AcDbEntity
  8
1
  6
Continuous
 62
     7
100
AcDbLine
 10
77.53385699999999
 20
65.63023100000001
 30
0.0
 11
74.63607900000001
 21
66.406688
 31
0.0
  0
TEXT
  5
D4
330
1E
100
AcDbEntity
  8
1
  6
Continuous
 62
     7
100
AcDbText
 10
52.93385699999999
 20
65.689216
 30
0.0
 40
4.0
  1
108
 41
0.5
  7
KANJI
100
AcDbText
  0
LINE
  5
D5
330
1E
100
AcDbEntity
  8
1
  6
Continuous
 62
     7
100
AcDbLine
 10
45.13385699999999
 20
76.12955500000001
 30
0.0
 11
66.733857
 21
76.12955500000001
 31
0.0
  0
LINE
  5
D6
330
1E
100
AcDbEntity
  8
1
  6
Continuous
 62
     7
100
AcDbLine
 10
45.13385699999999
 20
74.12955500000001
 30
0.0
 11
45.13385699999999
 21
86.23206299999999
 31
0.0
  0
LINE
  5
D7
330
1E
100
AcDbEntity
  8
1
  6
Continuous
 62
     7
100
AcDbLine
 10
66.733857
 20
74.12955500000001
 30
0.0
 11
66.733857
 21
86.23206299999999
 31
0.0
  0
LINE
  5
D8
330
1E
100
AcDbEntity
  8
1
  6
Continuous
 62
     7
100
AcDbLine
 10
45.13385699999999
 20
76.12955500000001
 30
0.0
 11
48.031634
 21
76.906012
 31
0.0
  0
LINE
  5
D9
330
1E
100
AcDbEntity
  8
1
  6
Continuous
 62
     7
100
AcDbLine
 10
45.13385699999999
 20
76.12955500000001
 30
0.0
 11
48.031634
 21
75.353098
 31
0.0
  0
LINE
  5
DA
330
1E
100
AcDbEntity
  8
1
  6
Continuous
 62
     7
100
AcDbLine
 10
66.733857
 20
76.12955500000001
 30
0.0
 11
63.83607900000001
 21
75.353098
 31
0.0
  0
LINE
  5
DB
330
1E
100
AcDbEntity
  8
1
  6
Continuous
 62
     7
100
AcDbLine
 10
66.733857
 20
76.12955500000001
 30
0.0
 11
63.83607900000001
 21
76.906012
 31
0.0
  0
TEXT
  5
DC
330
1E
100
AcDbEntity
  8
1
  6
Continuous
 62
     7
100
AcDbText
 10
53.93385699999999
 20
76.18854
 30
0.0
 40
4.0
  1
54
 41
0.5
  7
KANJI
100
AcDbText
  0
LINE
  5
DD
330
1E
100
AcDbEntity
  8
1
  6
Continuous
 62
     7
100
AcDbLine
 10
56.68485699999999
 20
83.207751
 30
0.0
 11
76.033857
 21
83.207751
 31
0.0
  0
LINE
  5
DE
330
1E
100
AcDbEntity
  8
1
  6
Continuous
 62
     7
100
AcDbLine
 10
65.43385699999999
 20
81.20775100000001
 30
0.0
 11
65.43385699999999
 21
86.23206299999999
 31
0.0
  0
LINE
  5
DF
330
1E
100
AcDbEntity
  8
1
  6
Continuous
 62
     7
100
AcDbLine
 10
68.03385699999999
 20
81.20775100000001
 30
0.0
 11
68.03385699999999
 21
86.23206299999999
 31
0.0
  0
LINE
  5
E0
330
1E
100
AcDbEntity
  8
1
  6
Continuous
 62
     7
100
AcDbLine
 10
65.43385699999999
 20
83.207751
 30
0.0
 11
62.536079
 21
82.43129399999999
 31
0.0
  0
LINE
  5
E1
330
1E
100
AcDbEntity
  8
1
  6
Continuous
 62
     7
100
AcDbLine
 10
65.43385699999999
 20
83.207751
 30
0.0
 11
62.536079
 21
83.984208
 31
0.0
  0
LINE
  5
E2
330
1E
100
AcDbEntity
  8
1
  6
Continuous
 62
     7
100
AcDbLine
 10
68.03385699999999
 20
83.207751
 30
0.0
 11
70.931634
 21
83.984208
 31
0.0
  0
LINE
  5
E3
330
1E
100
AcDbEntity
  8
1
  6
Continuous
 62
     7
100
AcDbLine
 10
68.03385699999999
 20
83.207751
 30
0.0
 11
70.931634
 21
82.43129399999999
 31
0.0
  0
TEXT
  5
E4
330
1E
100
AcDbEntity
  8
1
  6
Continuous
 62
     7
100
AcDbText
 10
54.934612
 20
83.325721
 30
0.0
 40
4.0
  1
φ6.5
 41
0.657895
  7
KANJI
100
AcDbText
  0
LINE
  5
E5
330
1E
100
AcDbEntity
  8
1
  6
Continuous
 62
     7
100
AcDbLine
 10
38.333857
 20
70.907488
 30
0.0
 11
73.533857
 21
70.907488
 31
0.0
  0
LINE
  5
E6
330
1E
100
AcDbEntity
  8
1
  6
Continuous
 62
     7
100
AcDbLine
 10
38.333857
 20
68.907488
 30
0.0
 11
38.333857
 21
86.23206299999999
 31
0.0
  0
LINE
  5
E7
330
1E
100
AcDbEntity
  8
1
  6
Continuous
 62
     7
100
AcDbLine
 10
73.533857
 20
68.907488
 30
0.0
 11
73.533857
 21
86.23206299999999
 31
0.0
  0
LINE
  5
E8
330
1E
100
AcDbEntity
  8
1
  6
Continuous
 62
     7
100
AcDbLine
 10
38.333857
 20
70.907488
 30
0.0
 11
41.231634
 21
71.68394499999999
 31
0.0
  0
LINE
  5
E9
330
1E
100
AcDbEntity
  8
1
  6
Continuous
 62
     7
100
AcDbLine
 10
38.333857
 20
70.907488
 30
0.0
 11
41.231634
 21
70.13103100000001
 31
0.0
  0
LINE
  5
EA
330
1E
100
AcDbEntity
  8
1
  6
Continuous
 62
     7
100
AcDbLine
 10
73.533857
 20
70.907488
 30
0.0
 11
70.636079
 21
70.13103100000001
 31
0.0
  0
LINE
  5
EB
330
1E
100
AcDbEntity
  8
1
  6
Continuous
 62
     7
100
AcDbLine
 10
73.533857
 20
70.907488
 30
0.0
 11
70.636079
 21
71.68394499999999
 31
0.0
  0
TEXT
  5
EC
330
1E
100
AcDbEntity
  8
1
  6
Continuous
 62
     7
100
AcDbText
 10
53.93385699999999
 20
70.907488
 30
0.0
 40
4.0
  1
88
 41
0.5
  7
KANJI
100
AcDbText
  0
LINE
  5
ED
330
1E
100
AcDbEntity
  8
1
  6
Continuous
 62
     7
100
AcDbLine
 10
22.903369
 20
88.232063
 30
0.0
 11
22.903369
 21
143.0320629999999
 31
0.0
  0
LINE
  5
EE
330
1E
100
AcDbEntity
  8
1
  6
Continuous
 62
     7
100
AcDbLine
 10
20.903369
 20
88.232063
 30
0.0
 11
32.333857
 21
88.232063
 31
0.0
  0
LINE
  5
EF
330
1E
100
AcDbEntity
  8
1
  6
Continuous
 62
     7
100
AcDbLine
 10
20.903369
 20
143.0320629999999
 30
0.0
 11
53.93385699999999
 21
143.0320629999999
 31
0.0
  0
LINE
  5
F0
330
1E
100
AcDbEntity
  8
1
  6
Continuous
 62
     7
100
AcDbLine
 10
22.903369
 20
88.232063
 30
0.0
 11
22.126912
 21
91.12984
 31
0.0
  0
LINE
  5
F1
330
1E
100
AcDbEntity
  8
1
  6
Continuous
 62
     7
100
AcDbLine
 10
22.903369
 20
88.232063
 30
0.0
 11
23.679826
 21
91.12984
 31
0.0
  0
LINE
  5
F2
330
1E
100
AcDbEntity
  8
1
  6
Continuous
 62
     7
100
AcDbLine
 10
22.903369
 20
143.0320629999999
 30
0.0
 11
23.679826
 21
140.1342849999999
 31
0.0
  0
LINE
  5
F3
330
1E
100
AcDbEntity
  8
1
  6
Continuous
 62
     7
100
AcDbLine
 10
22.903369
 20
143.0320629999999
 30
0.0
 11
22.126912
 21
140.1342849999999
 31
0.0
  0
TEXT
  5
F4
330
1E
100
AcDbEntity
  8
1
  6
Continuous
 62
     7
100
AcDbText
 10
22.78539899999999
 20
108.4320629999999
 30
0.0
 40
4.0
  1
137
 50
90.0
 41
0.5
  7
KANJI
100
AcDbText
  0
LINE
  5
F5
330
1E
100
AcDbEntity
  8
1
  6
Continuous
 62
     7
100
AcDbLine
 10
28.15303099999999
 20
88.232063
 30
0.0
 11
28.15303099999999
 21
109.4320629999999
 31
0.0
  0
LINE
  5
F6
330
1E
100
AcDbEntity
  8
1
  6
Continuous
 62
     7
100
AcDbLine
 10
26.153031
 20
88.232063
 30
0.0
 11
32.333857
 21
88.232063
 31
0.0
  0
LINE
  5
F7
330
1E
100
AcDbEntity
  8
1
  6
Continuous
 62
     7
100
AcDbLine
 10
26.153031
 20
109.4320629999999
 30
0.0
 11
39.817949
 21
109.4320629999999
 31
0.0
  0
LINE
  5
F8
330
1E
100
AcDbEntity
  8
1
  6
Continuous
 62
     7
100
AcDbLine
 10
28.15303099999999
 20
88.232063
 30
0.0
 11
27.37657399999999
 21
91.12984
 31
0.0
  0
LINE
  5
F9
330
1E
100
AcDbEntity
  8
1
  6
Continuous
 62
     7
100
AcDbLine
 10
28.15303099999999
 20
88.232063
 30
0.0
 11
28.929488
 21
91.12984
 31
0.0
  0
LINE
  5
FA
330
1E
100
AcDbEntity
  8
1
  6
Continuous
 62
     7
100
AcDbLine
 10
28.15303099999999
 20
109.4320629999999
 30
0.0
 11
28.929488
 21
106.534285
 31
0.0
  0
LINE
  5
FB
330
1E
100
AcDbEntity
  8
1
  6
Continuous
 62
     7
100
AcDbLine
 10
28.15303099999999
 20
109.4320629999999
 30
0.0
 11
27.37657399999999
 21
106.534285
 31
0.0
  0
TEXT
  5
FC
330
1E
100
AcDbEntity
  8
1
  6
Continuous
 62
     7
100
AcDbText
 10
27.681151
 20
97.72354200000002
 30
0.0
 40
4.0
  1
53
 50
90.0
 41
0.5
  7
KANJI
100
AcDbText
  0
LINE
  5
FD
330
1E
100
AcDbEntity
  8
1
  6
Continuous
 62
     7
100
AcDbLine
 10
169.866428
 20
126.2320629999999
 30
0.0
 11
169.866428
 21
96.632063
 31
0.0
  0
LINE
  5
FE
330
1E
100
AcDbEntity
  8
1
  6
Continuous
 62
     7
100
AcDbLine
 10
172.666428
 20
124.0720629999999
 30
0.0
 11
172.666428
 21
98.79206299999999
 31
0.0
  0
LINE
  5
FF
330
1E
100
AcDbEntity
  8
1
  6
Continuous
 62
     7
100
AcDbLine
 10
172.666428
 20
124.0720629999999
 30
0.0
 11
169.866428
 21
126.2320629999999
 31
0.0
  0
LINE
  5
100
330
1E
100
AcDbEntity
  8
1
  6
Continuous
 62
     7
100
AcDbLine
 10
172.666428
 20
98.79206299999999
 30
0.0
 11
169.866428
 21
96.632063
 31
0.0
  0
LINE
  5
101
330
1E
100
AcDbEntity
  8
1
  6
Continuous
 62
     7
100
AcDbLine
 10
183.6264279999999
 20
134.6320629999999
 30
0.0
 11
183.6264279999999
 21
88.232063
 31
0.0
  0
LINE
  5
102
330
1E
100
AcDbEntity
  8
1
  6
Continuous
 62
     7
100
AcDbLine
 10
202.426428
 20
134.6320629999999
 30
0.0
 11
202.426428
 21
88.232063
 31
0.0
  0
LINE
  5
103
330
1E
100
AcDbEntity
  8
1
  6
Continuous
 62
     7
100
AcDbLine
 10
172.666428
 20
124.0720629999999
 30
0.0
 11
183.6264279999999
 21
124.0720629999999
 31
0.0
  0
LINE
  5
104
330
1E
100
AcDbEntity
  8
1
  6
Continuous
 62
     7
100
AcDbLine
 10
172.666428
 20
98.79206299999999
 30
0.0
 11
183.6264279999999
 21
98.79206299999999
 31
0.0
  0
LINE
  5
105
330
1E
100
AcDbEntity
  8
1
  6
Continuous
 62
     7
100
AcDbLine
 10
184.026428
 20
134.6320629999999
 30
0.0
 11
184.026428
 21
88.232063
 31
0.0
  0
LINE
  5
106
330
1E
100
AcDbEntity
  8
1
  6
Continuous
 62
     7
100
AcDbLine
 10
184.6264279999999
 20
134.6320629999999
 30
0.0
 11
184.6264279999999
 21
88.232063
 31
0.0
  0
LINE
  5
107
330
1E
100
AcDbEntity
  8
1
  6
Continuous
 62
     7
100
AcDbLine
 10
183.6264279999999
 20
134.6320629999999
 30
0.0
 11
203.226428
 21
134.6320629999999
 31
0.0
  0
LINE
  5
108
330
1E
100
AcDbEntity
  8
1
  6
Continuous
 62
     7
100
AcDbLine
 10
183.6264279999999
 20
88.232063
 30
0.0
 11
203.226428
 21
88.232063
 31
0.0
  0
LINE
  5
109
330
1E
100
AcDbEntity
  8
1
  6
Continuous
 62
     7
100
AcDbLine
 10
203.226428
 20
134.6320629999999
 30
0.0
 11
203.226428
 21
88.232063
 31
0.0
  0
LINE
  5
10A
330
1E
100
AcDbEntity
  8
1
  6
Continuous
 62
     7
100
AcDbLine
 10
203.226428
 20
88.232063
 30
0.0
 11
221.6264279999999
 21
88.232063
 31
0.0
  0
LINE
  5
10B
330
1E
100
AcDbEntity
  8
1
  6
Continuous
 62
     7
100
AcDbLine
 10
203.226428
 20
96.43206300000001
 30
0.0
 11
236.4264279999999
 21
98.15206299999999
 31
0.0
  0
LINE
  5
10C
330
1E
100
AcDbEntity
  8
1
  6
Continuous
 62
     7
100
AcDbLine
 10
221.6264279999999
 20
88.232063
 30
0.0
 11
221.6264279999999
 21
97.38531600000001
 31
0.0
  0
LINE
  5
10D
330
1E
100
AcDbEntity
  8
1
  6
Continuous
 62
     7
100
AcDbLine
 10
232.8264279999999
 20
120.7120629999999
 30
0.0
 11
232.8264279999999
 21
97.973764
 31
0.0
  0
LINE
  5
10E
330
1E
100
AcDbEntity
  8
1
  6
Continuous
 62
     7
100
AcDbLine
 10
236.4264279999999
 20
98.15206299999999
 30
0.0
 11
236.4264279999999
 21
120.7120629999999
 31
0.0
  0
LINE
  5
10F
330
1E
100
AcDbEntity
  8
1
  6
Continuous
 62
     7
100
AcDbLine
 10
203.247123
 20
96.032598
 30
0.0
 11
221.6088049999999
 21
96.983866
 31
0.0
  0
LINE
  5
110
330
1E
100
AcDbEntity
  8
1
  6
Continuous
 62
     7
100
AcDbLine
 10
244.826428
 20
117.0320629999999
 30
0.0
 11
244.826428
 21
101.832063
 31
0.0
  0
LINE
  5
111
330
1E
100
AcDbEntity
  8
1
  6
Continuous
 62
     7
100
AcDbLine
 10
236.4264279999999
 20
117.0320629999999
 30
0.0
 11
244.826428
 21
117.0320629999999
 31
0.0
  0
LINE
  5
112
330
1E
100
AcDbEntity
  8
1
  6
Continuous
 62
     7
100
AcDbLine
 10
236.4264279999999
 20
101.832063
 30
0.0
 11
244.826428
 21
101.832063
 31
0.0
  0
LINE
  5
113
330
1E
100
AcDbEntity
  8
1
  6
Continuous
 62
     7
100
AcDbLine
 10
203.226428
 20
119.538648
 30
0.0
 11
232.8264279999999
 21
120.7120629999999
 31
0.0
  0
ARC
  5
114
330
1E
100
AcDbEntity
  8
1
  6
Continuous
 62
     7
100
AcDbCircle
 10
233.6264279999999
 20
141.032063
 30
0.0
 40
2.0
100
AcDbArc
 50
0.0
 51
90.0
  0
LINE
  5
115
330
1E
100
AcDbEntity
  8
1
  6
Continuous
 62
     7
100
AcDbLine
 10
233.6264279999999
 20
143.0320629999999
 30
0.0
 11
205.426428
 21
143.0320629999999
 31
0.0
  0
ARC
  5
116
330
1E
100
AcDbEntity
  8
1
  6
Continuous
 62
     7
100
AcDbCircle
 10
205.426428
 20
141.032063
 30
0.0
 40
2.0
100
AcDbArc
 50
90.0
 51
180.0
  0
LINE
  5
117
330
1E
100
AcDbEntity
  8
1
  6
Continuous
 62
     7
100
AcDbLine
 10
235.6264279999999
 20
141.032063
 30
0.0
 11
235.6264279999999
 21
122.7120629999999
 31
0.0
  0
ARC
  5
118
330
1E
100
AcDbEntity
  8
1
  6
Continuous
 62
     7
100
AcDbCircle
 10
233.6264279999999
 20
122.7120629999999
 30
0.0
 40
2.0
100
AcDbArc
 50
270.0
 51
0.0
  0
LINE
  5
119
330
1E
100
AcDbEntity
  8
1
  6
Continuous
 62
     7
100
AcDbLine
 10
233.6264279999999
 20
120.7120629999999
 30
0.0
 11
205.426428
 21
120.7120629999999
 31
0.0
  0
LINE
  5
11A
330
1E
100
AcDbEntity
  8
1
  6
Continuous
 62
     7
100
AcDbLine
 10
203.426428
 20
122.7120629999999
 30
0.0
 11
203.426428
 21
141.032063
 31
0.0
  0
ARC
  5
11B
330
1E
100
AcDbEntity
  8
1
  6
Continuous
 62
     7
100
AcDbCircle
 10
205.426428
 20
122.7120629999999
 30
0.0
 40
2.0
100
AcDbArc
 50
180.0
 51
270.0
  0
LINE
  5
11C
330
1E
100
AcDbEntity
  8
1
  6
Continuous
 62
     7
100
AcDbLine
 10
203.426428
 20
127.7520629999999
 30
0.0
 11
235.6264279999999
 21
127.7520629999999
 31
0.0
  0
LINE
  5
11D
330
1E
100
AcDbEntity
  8
1
  6
Continuous
 62
     7
100
AcDbLine
 10
210.0011569999999
 20
143.0320629999999
 30
0.0
 11
210.0011569999999
 21
139.722358
 31
0.0
  0
LINE
  5
11E
330
1E
100
AcDbEntity
  8
1
  6
Continuous
 62
     7
100
AcDbLine
 10
210.0011569999999
 20
139.722358
 30
0.0
 11
225.0636259999999
 21
139.722358
 31
0.0
  0
LINE
  5
11F
330
1E
100
AcDbEntity
  8
1
  6
Continuous
 62
     7
100
AcDbLine
 10
225.0636259999999
 20
139.722358
 30
0.0
 11
225.0636259999999
 21
143.0320629999999
 31
0.0
  0
LINE
  5
120
330
1E
100
AcDbEntity
  8
1
  6
Continuous
 62
     7
100
AcDbLine
 10
236.4264279999999
 20
120.7120629999999
 30
0.0
 11
233.6264279999999
 21
120.7120629999999
 31
0.0
  0
LINE
  5
121
330
1E
100
AcDbEntity
  8
1
  6
Continuous
 62
     7
100
AcDbLine
 10
236.8264279999999
 20
140.4320629999999
 30
0.0
 11
236.8264279999999
 21
125.6320629999999
 31
0.0
  0
LINE
  5
122
330
1E
100
AcDbEntity
  8
1
  6
Continuous
 62
     7
100
AcDbLine
 10
238.826428
 20
126.6234749999999
 30
0.0
 11
238.826428
 21
139.440651
 31
0.0
  0
LINE
  5
123
330
1E
100
AcDbEntity
  8
1
  6
Continuous
 62
     7
100
AcDbLine
 10
241.3264279999999
 20
140.4320629999999
 30
0.0
 11
241.3264279999999
 21
125.6320629999999
 31
0.0
  0
LINE
  5
124
330
1E
100
AcDbEntity
  8
1
  6
Continuous
 62
     7
100
AcDbLine
 10
242.5264279999999
 20
140.4320629999999
 30
0.0
 11
242.5264279999999
 21
125.6320629999999
 31
0.0
  0
LINE
  5
125
330
1E
100
AcDbEntity
  8
1
  6
Continuous
 62
     7
100
AcDbLine
 10
236.8264279999999
 20
140.4320629999999
 30
0.0
 11
235.6264279999999
 21
140.4320629999999
 31
0.0
  0
LINE
  5
126
330
1E
100
AcDbEntity
  8
1
  6
Continuous
 62
     7
100
AcDbLine
 10
236.8264279999999
 20
125.6320629999999
 30
0.0
 11
235.6264279999999
 21
125.6320629999999
 31
0.0
  0
LINE
  5
127
330
1E
100
AcDbEntity
  8
1
  6
Continuous
 62
     7
100
AcDbLine
 10
238.826428
 20
126.6234749999999
 30
0.0
 11
236.8264279999999
 21
126.6234749999999
 31
0.0
  0
LINE
  5
128
330
1E
100
AcDbEntity
  8
1
  6
Continuous
 62
     7
100
AcDbLine
 10
238.826428
 20
139.440651
 30
0.0
 11
236.8264279999999
 21
139.440651
 31
0.0
  0
LINE
  5
129
330
1E
100
AcDbEntity
  8
1
  6
Continuous
 62
     7
100
AcDbLine
 10
242.5264279999999
 20
140.4320629999999
 30
0.0
 11
241.3264279999999
 21
140.4320629999999
 31
0.0
  0
LINE
  5
12A
330
1E
100
AcDbEntity
  8
1
  6
Continuous
 62
     7
100
AcDbLine
 10
242.5264279999999
 20
125.6320629999999
 30
0.0
 11
241.3264279999999
 21
125.6320629999999
 31
0.0
  0
LINE
  5
12B
330
1E
100
AcDbEntity
  8
1
  6
Continuous
 62
     7
100
AcDbLine
 10
242.5264279999999
 20
139.440651
 30
0.0
 11
246.026428
 21
139.440651
 31
0.0
  0
LINE
  5
12C
330
1E
100
AcDbEntity
  8
1
  6
Continuous
 62
     7
100
AcDbLine
 10
242.5264279999999
 20
126.6234749999999
 30
0.0
 11
246.026428
 21
126.6234749999999
 31
0.0
  0
LINE
  5
12D
330
1E
100
AcDbEntity
  8
1
  6
Continuous
 62
     7
100
AcDbLine
 10
238.826428
 20
138.0320629999999
 30
0.0
 11
241.3264279999999
 21
138.0320629999999
 31
0.0
  0
LINE
  5
12E
330
1E
100
AcDbEntity
  8
1
  6
Continuous
 62
     7
100
AcDbLine
 10
238.826428
 20
128.032063
 30
0.0
 11
241.3264279999999
 21
128.032063
 31
0.0
  0
LINE
  5
12F
330
1E
100
AcDbEntity
  8
1
  6
Continuous
 62
     7
100
AcDbLine
 10
241.245097
 20
128.032063
 30
0.0
 11
241.3264279999999
 21
128.961687
 31
0.0
  0
LINE
  5
130
330
1E
100
AcDbEntity
  8
1
  6
Continuous
 62
     7
100
AcDbLine
 10
240.843569
 20
128.032063
 30
0.0
 11
241.3264279999999
 21
133.551172
 31
0.0
  0
LINE
  5
131
330
1E
100
AcDbEntity
  8
1
  6
Continuous
 62
     7
100
AcDbLine
 10
240.442041
 20
128.032063
 30
0.0
 11
241.316927
 21
138.0320629999999
 31
0.0
  0
LINE
  5
132
330
1E
100
AcDbEntity
  8
1
  6
Continuous
 62
     7
100
AcDbLine
 10
240.0405129999999
 20
128.032063
 30
0.0
 11
240.915399
 21
138.0320629999999
 31
0.0
  0
LINE
  5
133
330
1E
100
AcDbEntity
  8
1
  6
Continuous
 62
     7
100
AcDbLine
 10
239.638985
 20
128.032063
 30
0.0
 11
240.513871
 21
138.0320629999999
 31
0.0
  0
LINE
  5
134
330
1E
100
AcDbEntity
  8
1
  6
Continuous
 62
     7
100
AcDbLine
 10
239.2374569999999
 20
128.032063
 30
0.0
 11
240.112343
 21
138.0320629999999
 31
0.0
  0
LINE
  5
135
330
1E
100
AcDbEntity
  8
1
  6
Continuous
 62
     7
100
AcDbLine
 10
238.8359289999999
 20
128.032063
 30
0.0
 11
239.710816
 21
138.0320629999999
 31
0.0
  0
LINE
  5
136
330
1E
100
AcDbEntity
  8
1
  6
Continuous
 62
     7
100
AcDbLine
 10
238.826428
 20
132.512953
 30
0.0
 11
239.3092879999999
 21
138.0320629999999
 31
0.0
  0
LINE
  5
137
330
1E
100
AcDbEntity
  8
1
  6
Continuous
 62
     7
100
AcDbLine
 10
238.826428
 20
137.102439
 30
0.0
 11
238.9077599999999
 21
138.0320629999999
 31
0.0
  0
LINE
  5
138
330
1E
100
AcDbEntity
  8
1
  6
Continuous
 62
     7
100
AcDbLine
 10
248.0264279999999
 20
128.032063
 30
0.0
 11
246.026428
 21
126.6234749999999
 31
0.0
  0
LINE
  5
139
330
1E
100
AcDbEntity
  8
1
  6
Continuous
 62
     7
100
AcDbLine
 10
248.0264279999999
 20
138.0320629999999
 30
0.0
 11
246.026428
 21
139.440651
 31
0.0
  0
LINE
  5
13A
330
1E
100
AcDbEntity
  8
1
  6
Continuous
 62
     7
100
AcDbLine
 10
242.5264279999999
 20
127.123475
 30
0.0
 11
245.5264279999999
 21
127.123475
 31
0.0
  0
LINE
  5
13B
330
1E
100
AcDbEntity
  8
1
  6
Continuous
 62
     7
100
AcDbLine
 10
242.5264279999999
 20
138.940651
 30
0.0
 11
245.5264279999999
 21
138.940651
 31
0.0
  0
LINE
  5
13C
330
1E
100
AcDbEntity
  8
1
  6
Continuous
 62
     7
100
AcDbLine
 10
242.5264279999999
 20
133.282063
 30
0.0
 11
245.5264279999999
 21
133.282063
 31
0.0
  0
LINE
  5
13D
330
1E
100
AcDbEntity
  8
1
  6
Continuous
 62
     7
100
AcDbLine
 10
242.5264279999999
 20
132.7820629999999
 30
0.0
 11
245.5264279999999
 21
132.7820629999999
 31
0.0
  0
ARC
  5
13E
330
1E
100
AcDbEntity
  8
1
  6
Continuous
 62
     7
100
AcDbCircle
 10
237.774095
 20
136.111357
 30
0.0
 40
8.252489
100
AcDbArc
 50
339.949925
 51
20.050075
  0
ARC
  5
13F
330
1E
100
AcDbEntity
  8
1
  6
Continuous
 62
     7
100
AcDbCircle
 10
237.774095
 20
129.9527689999999
 30
0.0
 40
8.252489
100
AcDbArc
 50
339.949925
 51
20.050075
  0
LINE
  5
140
330
1E
100
AcDbEntity
  8
1
  6
Continuous
 62
     7
100
AcDbLine
 10
248.0264279999999
 20
138.0320629999999
 30
0.0
 11
248.0264279999999
 21
128.032063
 31
0.0
  0
LINE
  5
141
330
1E
100
AcDbEntity
  8
1
  6
Continuous
 62
     7
100
AcDbLine
 10
236.8264279999999
 20
134.2320629999999
 30
0.0
 11
238.826428
 21
134.2320629999999
 31
0.0
  0
LINE
  5
142
330
1E
100
AcDbEntity
  8
1
  6
Continuous
 62
     7
100
AcDbLine
 10
236.8264279999999
 20
131.8320629999999
 30
0.0
 11
238.826428
 21
131.8320629999999
 31
0.0
  0
LINE
  5
143
330
1E
100
AcDbEntity
  8
1
  6
Continuous
 62
     7
100
AcDbLine
 10
236.8264279999999
 20
138.940651
 30
0.0
 11
238.826428
 21
138.940651
 31
0.0
  0
LINE
  5
144
330
1E
100
AcDbEntity
  8
1
  6
Continuous
 62
     7
100
AcDbLine
 10
236.8264279999999
 20
127.123475
 30
0.0
 11
238.826428
 21
127.123475
 31
0.0
  0
LINE
  5
145
330
1E
100
AcDbEntity
  8
1
  6
Continuous
 62
     7
100
AcDbLine
 10
121.026428
 20
126.2320629999999
 30
0.0
 11
169.866428
 21
126.2320629999999
 31
0.0
  0
ARC
  5
146
330
1E
100
AcDbEntity
  8
1
  6
Continuous
 62
     7
100
AcDbCircle
 10
121.026428
 20
125.2320629999999
 30
0.0
 40
1.0
100
AcDbArc
 50
90.0
 51
180.0
  0
LINE
  5
147
330
1E
100
AcDbEntity
  8
1
  6
Continuous
 62
     7
100
AcDbLine
 10
121.026428
 20
96.632063
 30
0.0
 11
169.866428
 21
96.632063
 31
0.0
  0
LINE
  5
148
330
1E
100
AcDbEntity
  8
1
  6
Continuous
 62
     7
100
AcDbLine
 10
120.026428
 20
125.2320629999999
 30
0.0
 11
120.026428
 21
97.632063
 31
0.0
  0
ARC
  5
149
330
1E
100
AcDbEntity
  8
1
  6
Continuous
 62
     7
100
AcDbCircle
 10
121.026428
 20
97.632063
 30
0.0
 40
1.0
100
AcDbArc
 50
180.0
 51
270.0
  0
LINE
  5
14A
330
1E
100
AcDbEntity
  8
1
  6
Continuous
 62
     7
100
AcDbLine
 10
120.826428
 20
126.2320629999999
 30
0.0
 11
120.826428
 21
96.632063
 31
0.0
  0
LINE
  5
14B
330
1E
100
AcDbEntity
  8
1
  6
Continuous
 62
     7
100
AcDbLine
 10
183.6264279999999
 20
88.232063
 30
0.0
 11
160.639894
 21
88.232063
 31
0.0
  0
LINE
  5
14C
330
1E
100
AcDbEntity
  8
1
  6
Continuous
 62
     7
100
AcDbLine
 10
160.639894
 20
88.232063
 30
0.0
 11
120.87075
 21
88.232063
 31
0.0
  0
LINE
  5
14D
330
1E
100
AcDbEntity
  8
1
  6
Continuous
 62
     7
100
AcDbLine
 10
77.53385699999999
 20
88.232063
 30
0.0
 11
89.528143
 21
88.232063
 31
0.0
  0
LINE
  5
14E
330
1E
100
AcDbEntity
  8
1
  6
Continuous
 62
     7
100
AcDbLine
 10
221.6264279999999
 20
88.232063
 30
0.0
 11
243.7748739999999
 21
88.232063
 31
0.0
  0
LINE
  5
14F
330
1E
100
AcDbEntity
  8
1
  6
Continuous
 62
     7
100
AcDbLine
 10
113.574602
 20
111.4320629999999
 30
0.0
 11
113.574602
 21
88.232063
 31
0.0
  0
LINE
  5
150
330
1E
100
AcDbEntity
  8
1
  6
Continuous
 62
     7
100
AcDbLine
 10
111.574602
 20
111.4320629999999
 30
0.0
 11
118.026428
 21
111.4320629999999
 31
0.0
  0
LINE
  5
151
330
1E
100
AcDbEntity
  8
1
  6
Continuous
 62
     7
100
AcDbLine
 10
111.574602
 20
88.232063
 30
0.0
 11
118.87075
 21
88.232063
 31
0.0
  0
LINE
  5
152
330
1E
100
AcDbEntity
  8
1
  6
Continuous
 62
     7
100
AcDbLine
 10
113.574602
 20
111.4320629999999
 30
0.0
 11
114.3510589999999
 21
108.534285
 31
0.0
  0
LINE
  5
153
330
1E
100
AcDbEntity
  8
1
  6
Continuous
 62
     7
100
AcDbLine
 10
113.574602
 20
111.4320629999999
 30
0.0
 11
112.7981449999999
 21
108.534285
 31
0.0
  0
LINE
  5
154
330
1E
100
AcDbEntity
  8
1
  6
Continuous
 62
     7
100
AcDbLine
 10
113.574602
 20
88.232063
 30
0.0
 11
112.7981449999999
 21
91.12984
 31
0.0
  0
LINE
  5
155
330
1E
100
AcDbEntity
  8
1
  6
Continuous
 62
     7
100
AcDbLine
 10
113.574602
 20
88.232063
 30
0.0
 11
114.3510589999999
 21
91.12984
 31
0.0
  0
TEXT
  5
156
330
1E
100
AcDbEntity
  8
1
  6
Continuous
 62
     7
100
AcDbText
 10
113.4718399999999
 20
97.23293699999999
 30
0.0
 40
4.0
  1
58
 50
90.0
 41
0.5
  7
KANJI
100
AcDbText
  0
LINE
  5
157
330
1E
100
AcDbEntity
  8
1
  6
Continuous
 62
     7
100
AcDbLine
 10
131.7635899999999
 20
126.2320629999999
 30
0.0
 11
131.7635899999999
 21
96.65226700000001
 31
0.0
  0
LINE
  5
158
330
1E
100
AcDbEntity
  8
1
  6
Continuous
 62
     7
100
AcDbLine
 10
133.7635899999999
 20
126.2320629999999
 30
0.0
 11
123.026428
 21
126.2320629999999
 31
0.0
  0
LINE
  5
159
330
1E
100
AcDbEntity
  8
1
  6
Continuous
 62
     7
100
AcDbLine
 10
133.7635899999999
 20
96.65226700000001
 30
0.0
 11
122.826428
 21
96.65226700000001
 31
0.0
  0
LINE
  5
15A
330
1E
100
AcDbEntity
  8
1
  6
Continuous
 62
     7
100
AcDbLine
 10
131.7635899999999
 20
126.2320629999999
 30
0.0
 11
132.5400479999999
 21
123.334285
 31
0.0
  0
LINE
  5
15B
330
1E
100
AcDbEntity
  8
1
  6
Continuous
 62
     7
100
AcDbLine
 10
131.7635899999999
 20
126.2320629999999
 30
0.0
 11
130.987133
 21
123.334285
 31
0.0
  0
LINE
  5
15C
330
1E
100
AcDbEntity
  8
1
  6
Continuous
 62
     7
100
AcDbLine
 10
131.7635899999999
 20
96.65226700000001
 30
0.0
 11
130.987133
 21
99.55004399999999
 31
0.0
  0
LINE
  5
15D
330
1E
100
AcDbEntity
  8
1
  6
Continuous
 62
     7
100
AcDbLine
 10
131.7635899999999
 20
96.65226700000001
 30
0.0
 11
132.5400479999999
 21
99.55004399999999
 31
0.0
  0
TEXT
  5
15E
330
1E
100
AcDbEntity
  8
1
  6
Continuous
 62
     7
100
AcDbText
 10
131.455303
 20
107.4320629999999
 30
0.0
 40
4.0
  1
φ74
 50
90.0
 41
0.625
  7
KANJI
100
AcDbText
  0
LINE
  5
15F
330
1E
100
AcDbEntity
  8
1
  6
Continuous
 62
     7
100
AcDbLine
 10
193.6267029999999
 20
134.6320629999999
 30
0.0
 11
193.6267029999999
 21
88.232063
 31
0.0
  0
LINE
  5
160
330
1E
100
AcDbEntity
  8
1
  6
Continuous
 62
     7
100
AcDbLine
 10
195.626703
 20
134.6320629999999
 30
0.0
 11
186.626428
 21
134.6320629999999
 31
0.0
  0
LINE
  5
161
330
1E
100
AcDbEntity
  8
1
  6
Continuous
 62
     7
100
AcDbLine
 10
195.626703
 20
88.232063
 30
0.0
 11
186.626428
 21
88.232063
 31
0.0
  0
LINE
  5
162
330
1E
100
AcDbEntity
  8
1
  6
Continuous
 62
     7
100
AcDbLine
 10
193.6267029999999
 20
134.6320629999999
 30
0.0
 11
194.40316
 21
131.7342849999999
 31
0.0
  0
LINE
  5
163
330
1E
100
AcDbEntity
  8
1
  6
Continuous
 62
     7
100
AcDbLine
 10
193.6267029999999
 20
134.6320629999999
 30
0.0
 11
192.8502459999999
 21
131.7342849999999
 31
0.0
  0
LINE
  5
164
330
1E
100
AcDbEntity
  8
1
  6
Continuous
 62
     7
100
AcDbLine
 10
193.6267029999999
 20
88.232063
 30
0.0
 11
192.8502459999999
 21
91.12984
 31
0.0
  0
LINE
  5
165
330
1E
100
AcDbEntity
  8
1
  6
Continuous
 62
     7
100
AcDbLine
 10
193.6267029999999
 20
88.232063
 30
0.0
 11
194.40316
 21
91.12984
 31
0.0
  0
TEXT
  5
166
330
1E
100
AcDbEntity
  8
1
  6
Continuous
 62
     7
100
AcDbText
 10
193.729466
 20
106.4320629999999
 30
0.0
 40
4.0
  1
φ116
 50
90.0
 41
0.5952380000000001
  7
KANJI
100
AcDbText
  0
LINE
  5
167
330
1E
100
AcDbEntity
  8
1
  6
Continuous
 62
     7
100
AcDbLine
 10
254.153901
 20
117.0320629999999
 30
0.0
 11
254.153901
 21
101.832063
 31
0.0
  0
LINE
  5
168
330
1E
100
AcDbEntity
  8
1
  6
Continuous
 62
     7
100
AcDbLine
 10
256.1539009999999
 20
117.0320629999999
 30
0.0
 11
246.826428
 21
117.0320629999999
 31
0.0
  0
LINE
  5
169
330
1E
100
AcDbEntity
  8
1
  6
Continuous
 62
     7
100
AcDbLine
 10
256.1539009999999
 20
101.832063
 30
0.0
 11
246.826428
 21
101.832063
 31
0.0
  0
LINE
  5
16A
330
1E
100
AcDbEntity
  8
1
  6
Continuous
 62
     7
100
AcDbLine
 10
254.153901
 20
117.0320629999999
 30
0.0
 11
254.930359
 21
114.134285
 31
0.0
  0
LINE
  5
16B
330
1E
100
AcDbEntity
  8
1
  6
Continuous
 62
     7
100
AcDbLine
 10
254.153901
 20
117.0320629999999
 30
0.0
 11
253.377444
 21
114.134285
 31
0.0
  0
LINE
  5
16C
330
1E
100
AcDbEntity
  8
1
  6
Continuous
 62
     7
100
AcDbLine
 10
254.153901
 20
101.832063
 30
0.0
 11
253.377444
 21
104.72984
 31
0.0
  0
LINE
  5
16D
330
1E
100
AcDbEntity
  8
1
  6
Continuous
 62
     7
100
AcDbLine
 10
254.153901
 20
101.832063
 30
0.0
 11
254.930359
 21
104.72984
 31
0.0
  0
TEXT
  5
16E
330
1E
100
AcDbEntity
  8
1
  6
Continuous
 62
     7
100
AcDbText
 10
254.153901
 20
105.2009139999999
 30
0.0
 40
4.0
  1
φ38
 50
90.0
 41
0.625
  7
KANJI
100
AcDbText
  0
LINE
  5
16F
330
1E
100
AcDbEntity
  8
1
  6
DASHDOT
 62
     7
100
AcDbLine
 10
215.6264279999999
 20
92.75889000000001
 30
0.0
 11
215.6264279999999
 21
81.86605
 31
0.0
  0
LINE
  5
170
330
1E
100
AcDbEntity
  8
1
  6
Continuous
 62
     7
100
AcDbLine
 10
221.6264279999999
 20
89.43206299999999
 30
0.0
 11
203.226428
 21
89.832063
 31
0.0
  0
LINE
  5
171
330
1E
100
AcDbEntity
  8
1
  6
Continuous
 62
     7
100
AcDbLine
 10
214.3264279999999
 20
89.591764
 30
0.0
 11
214.3264279999999
 21
88.232063
 31
0.0
  0
LINE
  5
172
330
1E
100
AcDbEntity
  8
1
  6
Continuous
 62
     7
100
AcDbLine
 10
216.9264279999999
 20
89.533708
 30
0.0
 11
216.9264279999999
 21
88.232063
 31
0.0
  0
ARC
  5
173
330
1E
100
AcDbEntity
  8
1
  6
Continuous
 62
     7
100
AcDbCircle
 10
219.148868
 20
88.85434000000001
 30
0.0
 40
0.9288529999999999
100
AcDbArc
 50
135.9266729999999
 51
221.382181
  0
ARC
  5
174
330
1E
100
AcDbEntity
  8
1
  6
Continuous
 62
     7
100
AcDbCircle
 10
211.971558
 20
88.85434000000001
 30
0.0
 40
0.8203039999999999
100
AcDbArc
 50
310.659624
 51
72.399406
  0
LINE
  5
175
330
1E
100
AcDbEntity
  8
1
  6
Continuous
 62
     7
100
AcDbLine
 10
218.1842649999999
 20
88.232063
 30
0.0
 11
218.343602
 21
88.3914
 31
0.0
  0
LINE
  5
176
330
1E
100
AcDbEntity
  8
1
  6
Continuous
 62
     7
100
AcDbLine
 10
217.618579
 20
88.232063
 30
0.0
 11
218.220244
 21
88.83372800000001
 31
0.0
  0
LINE
  5
177
330
1E
100
AcDbEntity
  8
1
  6
Continuous
 62
     7
100
AcDbLine
 10
217.052894
 20
88.232063
 30
0.0
 11
218.324671
 21
89.50383999999999
 31
0.0
  0
LINE
  5
178
330
1E
100
AcDbEntity
  8
1
  6
Continuous
 62
     7
100
AcDbLine
 10
216.9264279999999
 20
88.67128199999999
 30
0.0
 11
217.771022
 21
89.51587600000001
 31
0.0
  0
LINE
  5
179
330
1E
100
AcDbEntity
  8
1
  6
Continuous
 62
     7
100
AcDbLine
 10
216.9264279999999
 20
89.236968
 30
0.0
 11
217.2173719999999
 21
89.527912
 31
0.0
  0
LINE
  5
17A
330
1E
100
AcDbEntity
  8
1
  6
Continuous
 62
     7
100
AcDbLine
 10
214.2672759999999
 20
88.232063
 30
0.0
 11
214.3264279999999
 21
88.291214
 31
0.0
  0
LINE
  5
17B
330
1E
100
AcDbEntity
  8
1
  6
Continuous
 62
     7
100
AcDbLine
 10
213.701591
 20
88.232063
 30
0.0
 11
214.3264279999999
 21
88.8569
 31
0.0
  0
LINE
  5
17C
330
1E
100
AcDbEntity
  8
1
  6
Continuous
 62
     7
100
AcDbLine
 10
213.135906
 20
88.232063
 30
0.0
 11
214.3264279999999
 21
89.42258499999999
 31
0.0
  0
LINE
  5
17D
330
1E
100
AcDbEntity
  8
1
  6
Continuous
 62
     7
100
AcDbLine
 10
212.57022
 20
88.232063
 30
0.0
 11
213.9373729999999
 21
89.59921599999999
 31
0.0
  0
LINE
  5
17E
330
1E
100
AcDbEntity
  8
1
  6
Continuous
 62
     7
100
AcDbLine
 10
212.777839
 20
89.00536700000001
 30
0.0
 11
213.383724
 21
89.61125200000001
 31
0.0
  0
LINE
  5
17F
330
1E
100
AcDbEntity
  8
1
  6
Continuous
 62
     7
100
AcDbLine
 10
212.5946529999999
 20
89.38786699999999
 30
0.0
 11
212.830074
 21
89.62328799999999
 31
0.0
  0
LINE
  5
180
330
1E
100
AcDbEntity
  8
1
  6
Continuous
 62
     7
100
AcDbLine
 10
212.2624399999999
 20
89.62133900000001
 30
0.0
 11
212.2764249999999
 21
89.635324
 31
0.0
  0
LINE
  5
181
330
1E
100
AcDbEntity
  8
1
  6
Continuous
 62
     7
100
AcDbLine
 10
120.026428
 20
81.661379
 30
0.0
 11
183.6264279999999
 21
81.661379
 31
0.0
  0
LINE
  5
182
330
1E
100
AcDbEntity
  8
1
  6
Continuous
 62
     7
100
AcDbLine
 10
120.026428
 20
79.66137900000001
 30
0.0
 11
120.026428
 21
95.632063
 31
0.0
  0
LINE
  5
183
330
1E
100
AcDbEntity
  8
1
  6
Continuous
 62
     7
100
AcDbLine
 10
183.6264279999999
 20
79.66137900000001
 30
0.0
 11
183.6264279999999
 21
86.23206299999999
 31
0.0
  0
LINE
  5
184
330
1E
100
AcDbEntity
  8
1
  6
Continuous
 62
     7
100
AcDbLine
 10
120.026428
 20
81.661379
 30
0.0
 11
122.924206
 21
82.437836
 31
0.0
  0
LINE
  5
185
330
1E
100
AcDbEntity
  8
1
  6
Continuous
 62
     7
100
AcDbLine
 10
120.026428
 20
81.661379
 30
0.0
 11
122.924206
 21
80.88492200000001
 31
0.0
  0
LINE
  5
186
330
1E
100
AcDbEntity
  8
1
  6
Continuous
 62
     7
100
AcDbLine
 10
183.6264279999999
 20
81.661379
 30
0.0
 11
180.728651
 21
80.88492200000001
 31
0.0
  0
LINE
  5
187
330
1E
100
AcDbEntity
  8
1
  6
Continuous
 62
     7
100
AcDbLine
 10
183.6264279999999
 20
81.661379
 30
0.0
 11
180.728651
 21
82.437836
 31
0.0
  0
TEXT
  5
188
330
1E
100
AcDbEntity
  8
1
  6
Continuous
 62
     7
100
AcDbText
 10
151.7299399999999
 20
81.53961499999999
 30
0.0
 40
4.0
  1
159
 41
0.5
  7
KANJI
100
AcDbText
  0
LINE
  5
189
330
1E
100
AcDbEntity
  8
1
  6
Continuous
 62
     7
100
AcDbLine
 10
120.026428
 20
73.624936
 30
0.0
 11
215.6264279999999
 21
73.624936
 31
0.0
  0
LINE
  5
18A
330
1E
100
AcDbEntity
  8
1
  6
Continuous
 62
     7
100
AcDbLine
 10
120.026428
 20
71.62493600000001
 30
0.0
 11
120.026428
 21
95.632063
 31
0.0
  0
LINE
  5
18B
330
1E
100
AcDbEntity
  8
1
  6
Continuous
 62
     7
100
AcDbLine
 10
215.6264279999999
 20
71.62493600000001
 30
0.0
 11
215.6264279999999
 21
86.23206299999999
 31
0.0
  0
LINE
  5
18C
330
1E
100
AcDbEntity
  8
1
  6
Continuous
 62
     7
100
AcDbLine
 10
120.026428
 20
73.624936
 30
0.0
 11
122.924206
 21
74.401393
 31
0.0
  0
LINE
  5
18D
330
1E
100
AcDbEntity
  8
1
  6
Continuous
 62
     7
100
AcDbLine
 10
120.026428
 20
73.624936
 30
0.0
 11
122.924206
 21
72.84847899999999
 31
0.0
  0
LINE
  5
18E
330
1E
100
AcDbEntity
  8
1
  6
Continuous
 62
     7
100
AcDbLine
 10
215.6264279999999
 20
73.624936
 30
0.0
 11
212.7286509999999
 21
72.84847899999999
 31
0.0
  0
LINE
  5
18F
330
1E
100
AcDbEntity
  8
1
  6
Continuous
 62
     7
100
AcDbLine
 10
215.6264279999999
 20
73.624936
 30
0.0
 11
212.7286509999999
 21
74.401393
 31
0.0
  0
TEXT
  5
190
330
1E
100
AcDbEntity
  8
1
  6
Continuous
 62
     7
100
AcDbText
 10
169.3857619999999
 20
73.50317199999999
 30
0.0
 40
4.0
  1
239
 41
0.5
  7
KANJI
100
AcDbText
  0
LINE
  5
191
330
1E
100
AcDbEntity
  8
1
  6
Continuous
 62
     7
100
AcDbLine
 10
120.109913
 20
146.074687
 30
0.0
 11
203.226428
 21
146.074687
 31
0.0
  0
LINE
  5
192
330
1E
100
AcDbEntity
  8
1
  6
Continuous
 62
     7
100
AcDbLine
 10
120.109913
 20
148.074687
 30
0.0
 11
120.109913
 21
127.6320629999999
 31
0.0
  0
LINE
  5
193
330
1E
100
AcDbEntity
  8
1
  6
Continuous
 62
     7
100
AcDbLine
 10
203.226428
 20
148.074687
 30
0.0
 11
203.226428
 21
136.6320629999999
 31
0.0
  0
LINE
  5
194
330
1E
100
AcDbEntity
  8
1
  6
Continuous
 62
     7
100
AcDbLine
 10
120.109913
 20
146.074687
 30
0.0
 11
123.00769
 21
146.851144
 31
0.0
  0
LINE
  5
195
330
1E
100
AcDbEntity
  8
1
  6
Continuous
 62
     7
100
AcDbLine
 10
120.109913
 20
146.074687
 30
0.0
 11
123.00769
 21
145.29823
 31
0.0
  0
LINE
  5
196
330
1E
100
AcDbEntity
  8
1
  6
Continuous
 62
     7
100
AcDbLine
 10
203.226428
 20
146.074687
 30
0.0
 11
200.328651
 21
145.29823
 31
0.0
  0
LINE
  5
197
330
1E
100
AcDbEntity
  8
1
  6
Continuous
 62
     7
100
AcDbLine
 10
203.226428
 20
146.074687
 30
0.0
 11
200.328651
 21
146.851144
 31
0.0
  0
TEXT
  5
198
330
1E
100
AcDbEntity
  8
1
  6
Continuous
 62
     7
100
AcDbText
 10
158.914033
 20
146.1964519999999
 30
0.0
 40
4.0
  1
206
 41
0.5
  7
KANJI
100
AcDbText
  0
LINE
  5
199
330
1E
100
AcDbEntity
  8
1
  6
Continuous
 62
     7
100
AcDbLine
 10
120.026428
 20
67.293193
 30
0.0
 11
244.826428
 21
67.293193
 31
0.0
  0
LINE
  5
19A
330
1E
100
AcDbEntity
  8
1
  6
Continuous
 62
     7
100
AcDbLine
 10
120.026428
 20
65.293193
 30
0.0
 11
120.026428
 21
95.632063
 31
0.0
  0
LINE
  5
19B
330
1E
100
AcDbEntity
  8
1
  6
Continuous
 62
     7
100
AcDbLine
 10
244.826428
 20
65.293193
 30
0.0
 11
244.826428
 21
99.832063
 31
0.0
  0
LINE
  5
19C
330
1E
100
AcDbEntity
  8
1
  6
Continuous
 62
     7
100
AcDbLine
 10
120.026428
 20
67.293193
 30
0.0
 11
122.924206
 21
68.06964999999999
 31
0.0
  0
LINE
  5
19D
330
1E
100
AcDbEntity
  8
1
  6
Continuous
 62
     7
100
AcDbLine
 10
120.026428
 20
67.293193
 30
0.0
 11
122.924206
 21
66.51673599999999
 31
0.0
  0
LINE
  5
19E
330
1E
100
AcDbEntity
  8
1
  6
Continuous
 62
     7
100
AcDbLine
 10
244.826428
 20
67.293193
 30
0.0
 11
241.9286509999999
 21
66.51673599999999
 31
0.0
  0
LINE
  5
19F
330
1E
100
AcDbEntity
  8
1
  6
Continuous
 62
     7
100
AcDbLine
 10
244.826428
 20
67.293193
 30
0.0
 11
241.9286509999999
 21
68.06964999999999
 31
0.0
  0
TEXT
  5
1A0
330
1E
100
AcDbEntity
  8
1
  6
Continuous
 62
     7
100
AcDbText
 10
174.986919
 20
67.293193
 30
0.0
 40
4.0
  1
312
 41
0.5
  7
KANJI
100
AcDbText
  0
LINE
  5
1A1
330
1E
100
AcDbEntity
  8
1
  6
Continuous
 62
     7
100
AcDbLine
 10
251.488442
 20
91.15899399999999
 30
0.0
 11
228.4264279999999
 21
91.15899399999999
 31
0.0
  0
LINE
  5
1A2
330
1E
100
AcDbEntity
  8
1
  6
Continuous
 62
     7
100
AcDbLine
 10
244.826428
 20
89.15899399999998
 30
0.0
 11
244.826428
 21
99.832063
 31
0.0
  0
LINE
  5
1A3
330
1E
100
AcDbEntity
  8
1
  6
Continuous
 62
     7
100
AcDbLine
 10
236.4264279999999
 20
89.15899399999998
 30
0.0
 11
236.4264279999999
 21
99.832063
 31
0.0
  0
LINE
  5
1A4
330
1E
100
AcDbEntity
  8
1
  6
Continuous
 62
     7
100
AcDbLine
 10
244.826428
 20
91.15899399999999
 30
0.0
 11
247.724206
 21
91.93545099999999
 31
0.0
  0
LINE
  5
1A5
330
1E
100
AcDbEntity
  8
1
  6
Continuous
 62
     7
100
AcDbLine
 10
244.826428
 20
91.15899399999999
 30
0.0
 11
247.724206
 21
90.382536
 31
0.0
  0
LINE
  5
1A6
330
1E
100
AcDbEntity
  8
1
  6
Continuous
 62
     7
100
AcDbLine
 10
236.4264279999999
 20
91.15899399999999
 30
0.0
 11
233.5286509999999
 21
90.382536
 31
0.0
  0
LINE
  5
1A7
330
1E
100
AcDbEntity
  8
1
  6
Continuous
 62
     7
100
AcDbLine
 10
236.4264279999999
 20
91.15899399999999
 30
0.0
 11
233.5286509999999
 21
91.93545099999999
 31
0.0
  0
TEXT
  5
1A8
330
1E
100
AcDbEntity
  8
1
  6
Continuous
 62
     7
100
AcDbText
 10
246.488442
 20
91.28075799999999
 30
0.0
 40
4.0
  1
20
 41
0.5
  7
KANJI
100
AcDbText
  0
LINE
  5
1A9
330
1E
100
AcDbEntity
  8
1
  6
DASHDOT
 62
     7
100
AcDbLine
 10
55.93385699999999
 20
86.99175699999999
 30
0.0
 11
55.93385699999999
 21
92.33057700000001
 31
0.0
  0
LINE
  5
1AA
330
1E
100
AcDbEntity
  8
1
  6
DASHDOT
 62
     7
100
AcDbLine
 10
112.2386879999999
 20
111.4320629999999
 30
0.0
 11
247.333923
 21
111.4320629999999
 31
0.0
  0
TEXT
  5
1AB
330
1E
100
AcDbEntity
  8
1
  6
Continuous
 62
     7
100
AcDbText
 10
120.4724209999999
 20
35.552382
 30
0.0
 40
5.0
  1
1/2.5
 41
0.543478
  7
KANJI
100
AcDbText
  0
TEXT
  5
1AC
330
1E
100
AcDbEntity
  8
1
  6
Continuous
 62
     7
100
AcDbText
 10
118.310733
 20
25.98371
 30
0.0
 40
5.0
  1
2007.4.9
 41
0.5555560000000001
  7
KANJI
100
AcDbText
  0
TEXT
  5
1AD
330
1E
100
AcDbEntity
  8
1
  6
Continuous
 62
     7
100
AcDbText
 10
216.753117
 20
25.480096
 30
0.0
 40
5.0
  1
ＰＨＳ５０
 41
0.833333
  7
KANJI
100
AcDbText
  0
TEXT
  5
1AE
330
1E
100
AcDbEntity
  8
1
  6
Continuous
 62
     7
100
AcDbText
 10
217.7603459999999
 20
15.8107
 30
0.0
 40
5.0
  1
外観仕様図
 41
0.833333
  7
KANJI
100
AcDbText
  0
ENDSEC
  0
SECTION
  2
OBJECTS
  0
DICTIONARY
  5
C
330
0
100
AcDbDictionary
281
     1
  3
ACAD_GROUP
350
D
  3
ACAD_PLOTSTYLENAME
350
E
  3
ACAD_MLINESTYLE
350
16
  3
ACAD_PLOTSETTINGS
350
18
  3
ACAD_LAYOUT
350
19
  0
DICTIONARY
  5
D
102
{ACAD_REACTORS
330
C
102
}
330
C
100
AcDbDictionary
281
     1
  0
ACDBDICTIONARYWDFLT
  5
E
102
{ACAD_REACTORS
330
C
102
}
330
C
100
AcDbDictionary
281
     1
  3
Normal
350
F
100
AcDbDictionaryWithDefault
340
F
  0
DICTIONARY
  5
16
102
{ACAD_REACTORS
330
C
102
}
330
C
100
AcDbDictionary
281
     1
  3
Standard
350
17
  0
DICTIONARY
  5
18
102
{ACAD_REACTORS
330
C
102
}
330
C
100
AcDbDictionary
281
     1
  0
DICTIONARY
  5
19
102
{ACAD_REACTORS
330
C
102
}
330
C
100
AcDbDictionary
281
     1
  3
ﾚｲｱｳﾄ1
350
1D
  3
Model
350
21
  0
ACDBPLACEHOLDER
  5
F
102
{ACAD_REACTORS
330
E
102
}
330
E
  0
MLINESTYLE
  5
17
102
{ACAD_REACTORS
330
16
102
}
330
16
100
AcDbMlineStyle
  2
STANDARD
 70
     0
  3

 62
   256
 51
90.0
 52
90.0
 71
     2
 49
0.5
 62
   256
  6
BYLAYER
 49
-0.5
 62
   256
  6
BYLAYER
  0
LAYOUT
  5
1D
102
{ACAD_REACTORS
330
19
102
}
330
19
100
AcDbPlotSettings
  1

  2
なし
  4

  6

 40
0.0
 41
0.0
 42
0.0
 43
0.0
 44
0.0
 45
0.0
 46
0.0
 47
0.0
 48
0.0
 49
0.0
140
0.0
141
0.0
142
1.0
143
1.0
 70
   688
 72
     0
 73
     0
 74
     5
  7

 75
    16
147
1.0
148
0.0
149
0.0
100
AcDbLayout
  1
ﾚｲｱｳﾄ1
 70
     1
 71
     1
 10
0.0
 20
0.0
 11
12.0
 21
9.0
 12
0.0
 22
0.0
 32
0.0
 14
0.0
 24
0.0
 34
0.0
 15
297.0
 25
210.0
 35
0.0
146
0.0
 13
0.0
 23
0.0
 33
0.0
 16
1.0
 26
0.0
 36
0.0
 17
0.0
 27
1.0
 37
0.0
 76
     0
330
1A
  0
LAYOUT
  5
21
102
{ACAD_REACTORS
330
19
102
}
330
19
100
AcDbPlotSettings
  1

  2
なし
  4

  6

 40
0.0
 41
0.0
 42
0.0
 43
0.0
 44
0.0
 45
0.0
 46
0.0
 47
0.0
 48
0.0
 49
0.0
140
0.0
141
0.0
142
1.0
143
1.0
 70
  1712
 72
     0
 73
     0
 74
     0
  7

 75
     0
147
1.0
148
0.0
149
0.0
100
AcDbLayout
  1
Model
 70
     1
 71
     0
 10
0.0
 20
0.0
 11
12.0
 21
9.0
 12
0.0
 22
0.0
 32
0.0
 14
0.0
 24
0.0
 34
0.0
 15
0.0
 25
0.0
 35
0.0
146
0.0
 13
0.0
 23
0.0
 33
0.0
 16
1.0
 26
0.0
 36
0.0
 17
0.0
 27
1.0
 37
0.0
 76
     0
330
1E
  0
ENDSEC
  0
EOF
