  0
SECTION
  2
HEADER
  9
$ACADVER
  1
AC1015
  9
$ACADMAINTVER
 70
     6
  9
$DWGCODEPAGE
  3
ANSI_932
  9
$INSBASE
 10
0.0
 20
0.0
 30
0.0
  9
$EXTMIN
 10
9.281250702311808
 20
5.280762213841967
 30
-0.0015258207003583
  9
$EXTMAX
 10
286.404511177219
 20
195.3945927570977
 30
0.0000000349246037
  9
$LIMMIN
 10
0.0
 20
0.0
  9
$LIMMAX
 10
297.0
 20
210.0
  9
$ORTHOMODE
 70
     0
  9
$REGENMODE
 70
     1
  9
$FILLMODE
 70
     1
  9
$QTEXTMODE
 70
     0
  9
$MIRRTEXT
 70
     1
  9
$LTSCALE
 40
0.25
  9
$ATTMODE
 70
     1
  9
$TEXTSIZE
 40
0.2
  9
$TRACEWID
 40
0.05
  9
$TEXTSTYLE
  7
STANDARD
  9
$CLAYER
  8
0
  9
$CELTYPE
  6
ByLayer
  9
$CECOLOR
 62
   256
  9
$CELTSCALE
 40
1.0
  9
$DISPSILH
 70
     0
  9
$DIMSCALE
 40
1.0
  9
$DIMASZ
 40
1.0
  9
$DIMEXO
 40
0.0
  9
$DIMDLI
 40
0.5
  9
$DIMRND
 40
0.0
  9
$DIMDLE
 40
0.0
  9
$DIMEXE
 40
0.0
  9
$DIMTP
 40
0.0
  9
$DIMTM
 40
0.0
  9
$DIMTXT
 40
0.18
  9
$DIMCEN
 40
0.0
  9
$DIMTSZ
 40
0.0
  9
$DIMTOL
 70
     0
  9
$DIMLIM
 70
     0
  9
$DIMTIH
 70
     1
  9
$DIMTOH
 70
     1
  9
$DIMSE1
 70
     0
  9
$DIMSE2
 70
     0
  9
$DIMTAD
 70
     0
  9
$DIMZIN
 70
     0
  9
$DIMBLK
  1

  9
$DIMASO
 70
     0
  9
$DIMSHO
 70
     0
  9
$DIMPOST
  1

  9
$DIMAPOST
  1

  9
$DIMALT
 70
     0
  9
$DIMALTD
 70
     0
  9
$DIMALTF
 40
25.4
  9
$DIMLFAC
 40
1.0
  9
$DIMTOFL
 70
     0
  9
$DIMTVP
 40
0.0
  9
$DIMTIX
 70
     0
  9
$DIMSOXD
 70
     0
  9
$DIMSAH
 70
     0
  9
$DIMBLK1
  1

  9
$DIMBLK2
  1

  9
$DIMSTYLE
  2
Standard
  9
$DIMCLRD
 70
     0
  9
$DIMCLRE
 70
     0
  9
$DIMCLRT
 70
     0
  9
$DIMTFAC
 40
1.0
  9
$DIMGAP
 40
0.09
  9
$DIMJUST
 70
     0
  9
$DIMSD1
 70
     0
  9
$DIMSD2
 70
     0
  9
$DIMTOLJ
 70
     1
  9
$DIMTZIN
 70
     0
  9
$DIMALTZ
 70
     0
  9
$DIMALTTZ
 70
     0
  9
$DIMUPT
 70
     0
  9
$DIMDEC
 70
     4
  9
$DIMTDEC
 70
     4
  9
$DIMALTU
 70
     2
  9
$DIMALTTD
 70
     2
  9
$DIMTXSTY
  7
STANDARD
  9
$DIMAUNIT
 70
     0
  9
$DIMADEC
 70
     0
  9
$DIMALTRND
 40
0.0
  9
$DIMAZIN
 70
     0
  9
$DIMDSEP
 70
    46
  9
$DIMATFIT
 70
     3
  9
$DIMFRAC
 70
     0
  9
$DIMLDRBLK
  1

  9
$DIMLUNIT
 70
     2
  9
$DIMLWD
 70
    -2
  9
$DIMLWE
 70
    -2
  9
$DIMTMOVE
 70
     0
  9
$LUNITS
 70
     2
  9
$LUPREC
 70
     2
  9
$SKETCHINC
 40
0.0
  9
$FILLETRAD
 40
0.0
  9
$AUNITS
 70
     1
  9
$AUPREC
 70
     2
  9
$MENU
  1
ACAD
  9
$ELEVATION
 40
0.0
  9
$PELEVATION
 40
0.0
  9
$THICKNESS
 40
0.0
  9
$LIMCHECK
 70
     1
  9
$CHAMFERA
 40
0.0
  9
$CHAMFERB
 40
0.0
  9
$CHAMFERC
 40
0.0
  9
$CHAMFERD
 40
0.0
  9
$SKPOLY
 70
     0
  9
$TDCREATE
 40
2311945.483414676
  9
$TDUCREATE
 40
2311945.108414676
  9
$TDUPDATE
 40
2454315.689447152
  9
$TDUUPDATE
 40
2454315.314447153
  9
$TDINDWG
 40
0.0004123264
  9
$TDUSRTIMER
 40
0.0004119676
  9
$USRTIMER
 70
     1
  9
$ANGBASE
 50
0.0
  9
$ANGDIR
 70
     0
  9
$PDMODE
 70
     0
  9
$PDSIZE
 40
0.0
  9
$PLINEWID
 40
0.0
  9
$SPLFRAME
 70
     0
  9
$SPLINETYPE
 70
     6
  9
$SPLINESEGS
 70
     8
  9
$HANDSEED
  5
7C8
  9
$SURFTAB1
 70
     6
  9
$SURFTAB2
 70
     6
  9
$SURFTYPE
 70
     6
  9
$SURFU
 70
     6
  9
$SURFV
 70
     6
  9
$UCSBASE
  2

  9
$UCSNAME
  2

  9
$UCSORG
 10
0.0
 20
0.0
 30
0.0
  9
$UCSXDIR
 10
1.0
 20
0.0
 30
0.0
  9
$UCSYDIR
 10
0.0
 20
1.0
 30
0.0
  9
$UCSORTHOREF
  2

  9
$UCSORTHOVIEW
 70
     0
  9
$UCSORGTOP
 10
0.0
 20
0.0
 30
0.0
  9
$UCSORGBOTTOM
 10
0.0
 20
0.0
 30
0.0
  9
$UCSORGLEFT
 10
0.0
 20
0.0
 30
0.0
  9
$UCSORGRIGHT
 10
0.0
 20
0.0
 30
0.0
  9
$UCSORGFRONT
 10
0.0
 20
0.0
 30
0.0
  9
$UCSORGBACK
 10
0.0
 20
0.0
 30
0.0
  9
$PUCSBASE
  2

  9
$PUCSNAME
  2

  9
$PUCSORG
 10
0.0
 20
0.0
 30
0.0
  9
$PUCSXDIR
 10
1.0
 20
0.0
 30
0.0
  9
$PUCSYDIR
 10
0.0
 20
1.0
 30
0.0
  9
$PUCSORTHOREF
  2

  9
$PUCSORTHOVIEW
 70
     0
  9
$PUCSORGTOP
 10
0.0
 20
0.0
 30
0.0
  9
$PUCSORGBOTTOM
 10
0.0
 20
0.0
 30
0.0
  9
$PUCSORGLEFT
 10
0.0
 20
0.0
 30
0.0
  9
$PUCSORGRIGHT
 10
0.0
 20
0.0
 30
0.0
  9
$PUCSORGFRONT
 10
0.0
 20
0.0
 30
0.0
  9
$PUCSORGBACK
 10
0.0
 20
0.0
 30
0.0
  9
$USERI1
 70
     0
  9
$USERI2
 70
     0
  9
$USERI3
 70
     0
  9
$USERI4
 70
     0
  9
$USERI5
 70
     0
  9
$USERR1
 40
0.0
  9
$USERR2
 40
0.0
  9
$USERR3
 40
0.0
  9
$USERR4
 40
0.0
  9
$USERR5
 40
0.0
  9
$WORLDVIEW
 70
     1
  9
$SHADEDGE
 70
     3
  9
$SHADEDIF
 70
    70
  9
$TILEMODE
 70
     1
  9
$MAXACTVP
 70
    64
  9
$PINSBASE
 10
0.0
 20
0.0
 30
0.0
  9
$PLIMCHECK
 70
     0
  9
$PEXTMIN
 10
0.0
 20
0.0
 30
0.0
  9
$PEXTMAX
 10
297.0
 20
210.0
 30
0.0
  9
$PLIMMIN
 10
0.0
 20
0.0
  9
$PLIMMAX
 10
12.0
 20
9.0
  9
$UNITMODE
 70
     0
  9
$VISRETAIN
 70
     1
  9
$PLINEGEN
 70
     0
  9
$PSLTSCALE
 70
     1
  9
$TREEDEPTH
 70
  3020
  9
$CMLSTYLE
  2
Standard
  9
$CMLJUST
 70
     0
  9
$CMLSCALE
 40
1.0
  9
$PROXYGRAPHICS
 70
     1
  9
$MEASUREMENT
 70
     0
  9
$CELWEIGHT
370
    -1
  9
$ENDCAPS
280
     0
  9
$JOINSTYLE
280
     0
  9
$LWDISPLAY
290
     0
  9
$INSUNITS
 70
     0
  9
$HYPERLINKBASE
  1

  9
$STYLESHEET
  1

  9
$XEDIT
290
     1
  9
$CEPSNTYPE
380
     0
  9
$PSTYLEMODE
290
     1
  9
$FINGERPRINTGUID
  2
{9315A313-941E-43E2-A88C-527084FA955C}
  9
$VERSIONGUID
  2
{25A5AA03-1C01-49A6-8A0B-96296065A45E}
  9
$EXTNAMES
290
     1
  9
$PSVPSCALE
 40
0.0
  9
$OLESTARTUP
290
     0
  0
ENDSEC
  0
SECTION
  2
CLASSES
  0
CLASS
  1
ACDBDICTIONARYWDFLT
  2
AcDbDictionaryWithDefault
  3
AutoCAD 2000
 90
        0
280
     0
281
     0
  0
CLASS
  1
ACDBPLACEHOLDER
  2
AcDbPlaceHolder
  3
AutoCAD 2000
 90
        0
280
     0
281
     0
  0
CLASS
  1
LAYOUT
  2
AcDbLayout
  3
AutoCAD 2000
 90
        0
280
     0
281
     0
  0
ENDSEC
  0
SECTION
  2
TABLES
  0
TABLE
  2
VPORT
  5
8
330
0
100
AcDbSymbolTable
 70
     2
  0
VPORT
  5
7C7
330
8
100
AcDbSymbolTableRecord
100
AcDbViewportTableRecord
  2
*Active
 70
     0
 10
0.0
 20
0.0
 11
1.0
 21
1.0
 12
148.4999999999999
 22
105.0
 13
0.0
 23
0.0
 14
1.0
 24
1.0
 15
0.0
 25
0.0
 16
0.0
 26
0.0
 36
1.0
 17
0.0
 27
0.0
 37
0.0
 40
211.5969581749049
 41
1.527918781725888
 42
50.0
 43
0.0
 44
0.0
 50
0.0
 51
0.0
 71
     0
 72
   100
 73
     1
 74
     1
 75
     0
 76
     0
 77
     0
 78
     0
281
     0
 65
     1
110
0.0
120
0.0
130
0.0
111
1.0
121
0.0
131
0.0
112
0.0
122
1.0
132
0.0
 79
     0
146
0.0
  0
ENDTAB
  0
TABLE
  2
LTYPE
  5
5
330
0
100
AcDbSymbolTable
 70
     7
  0
LTYPE
  5
13
330
5
100
AcDbSymbolTableRecord
100
AcDbLinetypeTableRecord
  2
ByBlock
 70
     0
  3

 72
    65
 73
     0
 40
0.0
  0
LTYPE
  5
14
330
5
100
AcDbSymbolTableRecord
100
AcDbLinetypeTableRecord
  2
ByLayer
 70
     0
  3

 72
    65
 73
     0
 40
0.0
  0
LTYPE
  5
15
330
5
100
AcDbSymbolTableRecord
100
AcDbLinetypeTableRecord
  2
CONTINUOUS
 70
     0
  3
Solid line
 72
    65
 73
     0
 40
0.0
  0
LTYPE
  5
22
330
5
100
AcDbSymbolTableRecord
100
AcDbLinetypeTableRecord
  2
HIDDEN
 70
     0
  3
------------------------
 72
    65
 73
     2
 40
12.6
 49
8.4
 74
     0
 49
-4.2
 74
     0
  0
LTYPE
  5
23
330
5
100
AcDbSymbolTableRecord
100
AcDbLinetypeTableRecord
  2
DOT
 70
     0
  3
････････････････････････
 72
    65
 73
     2
 40
8.0
 49
6.0
 74
     0
 49
-2.0
 74
     0
  0
LTYPE
  5
24
330
5
100
AcDbSymbolTableRecord
100
AcDbLinetypeTableRecord
  2
DASHDOT
 70
     0
  3
--･--･--･--･--･--･--･--
 72
    65
 73
     4
 40
50.5
 49
30.0
 74
     0
 49
-9.0
 74
     0
 49
2.5
 74
     0
 49
-9.0
 74
     0
  0
LTYPE
  5
25
330
5
100
AcDbSymbolTableRecord
100
AcDbLinetypeTableRecord
  2
DIVIDE
 70
     0
  3
--･･--･･--･･--･･--･･--
 72
    65
 73
     6
 40
58.0
 49
30.0
 74
     0
 49
-9.0
 74
     0
 49
2.5
 74
     0
 49
-5.0
 74
     0
 49
2.5
 74
     0
 49
-9.0
 74
     0
  0
LTYPE
  5
26
330
5
100
AcDbSymbolTableRecord
100
AcDbLinetypeTableRecord
  2
ACAD_ISO06W100
 70
     0
  3
____ ... ____ ... ____
 72
    65
 73
     8
 40
37.5
 49
24.0
 74
     0
 49
-3.0
 74
     0
 49
0.5
 74
     0
 49
-3.0
 74
     0
 49
0.5
 74
     0
 49
-3.0
 74
     0
 49
0.5
 74
     0
 49
-3.0
 74
     0
  0
LTYPE
  5
27
330
5
100
AcDbSymbolTableRecord
100
AcDbLinetypeTableRecord
  2
ACAD_ISO14W100
 70
     0
  3
__ . . . __ . . . __ . . . 
 72
    65
 73
     8
 40
25.5
 49
12.0
 74
     0
 49
-3.0
 74
     0
 49
0.5
 74
     0
 49
-3.0
 74
     0
 49
0.5
 74
     0
 49
-3.0
 74
     0
 49
0.5
 74
     0
 49
-3.0
 74
     0
  0
ENDTAB
  0
TABLE
  2
LAYER
  5
2
330
0
100
AcDbSymbolTable
 70
     2
  0
LAYER
  5
10
330
2
100
AcDbSymbolTableRecord
100
AcDbLayerTableRecord
  2
0
 70
     0
 62
     7
  6
CONTINUOUS
370
    -3
390
F
  0
LAYER
  5
28
330
2
100
AcDbSymbolTableRecord
100
AcDbLayerTableRecord
  2
1
 70
     0
 62
     7
  6
CONTINUOUS
370
    -3
390
F
  0
ENDTAB
  0
TABLE
  2
STYLE
  5
3
330
0
100
AcDbSymbolTable
 70
     2
  0
STYLE
  5
11
330
3
100
AcDbSymbolTableRecord
100
AcDbTextStyleTableRecord
  2
STANDARD
 70
     0
 40
0.0
 41
1.0
 50
0.0
 71
     0
 42
0.2
  3
TXT
  4

  0
STYLE
  5
29
330
3
100
AcDbSymbolTableRecord
100
AcDbTextStyleTableRecord
  2
KANJI
 70
     0
 40
0.0
 41
1.0
 50
0.0
 71
     0
 42
0.2
  3
TXT
  4
BIGFONT
  0
ENDTAB
  0
TABLE
  2
VIEW
  5
6
330
0
100
AcDbSymbolTable
 70
     0
  0
ENDTAB
  0
TABLE
  2
UCS
  5
7
330
0
100
AcDbSymbolTable
 70
     0
  0
ENDTAB
  0
TABLE
  2
APPID
  5
9
330
0
100
AcDbSymbolTable
 70
     1
  0
APPID
  5
12
330
9
100
AcDbSymbolTableRecord
100
AcDbRegAppTableRecord
  2
ACAD
 70
     0
  0
ENDTAB
  0
TABLE
  2
DIMSTYLE
  5
A
330
0
100
AcDbSymbolTable
 70
     1
100
AcDbDimStyleTable
 71
     0
  0
DIMSTYLE
105
7C5
330
A
100
AcDbSymbolTableRecord
100
AcDbDimStyleTableRecord
  2
Standard
 70
     0
340
11
  0
ENDTAB
  0
TABLE
  2
BLOCK_RECORD
  5
1
330
0
100
AcDbSymbolTable
 70
     0
  0
BLOCK_RECORD
  5
1E
330
1
100
AcDbSymbolTableRecord
100
AcDbBlockTableRecord
  2
*Model_Space
340
21
  0
BLOCK_RECORD
  5
1A
330
1
100
AcDbSymbolTableRecord
100
AcDbBlockTableRecord
  2
*Paper_Space
340
1D
  0
ENDTAB
  0
ENDSEC
  0
SECTION
  2
BLOCKS
  0
BLOCK
  5
1F
330
1E
100
AcDbEntity
  8
0
100
AcDbBlockBegin
  2
*Model_Space
 70
     0
 10
0.0
 20
0.0
 30
0.0
  3
*Model_Space
  1

  0
ENDBLK
  5
20
330
1E
100
AcDbEntity
  8
0
100
AcDbBlockEnd
  0
BLOCK
  5
1B
330
1A
100
AcDbEntity
 67
     1
  8
0
100
AcDbBlockBegin
  2
*Paper_Space
 70
     0
 10
0.0
 20
0.0
 30
0.0
  3
*Paper_Space
  1

  0
ENDBLK
  5
1C
330
1A
100
AcDbEntity
 67
     1
  8
0
100
AcDbBlockEnd
  0
ENDSEC
  0
SECTION
  2
ENTITIES
  0
LINE
  5
2D
330
1E
100
AcDbEntity
  8
1
  6
Continuous
 62
     7
100
AcDbLine
 10
286.399439
 20
5.290191
 30
0.0
 11
286.399439
 21
195.3901909999999
 31
0.0
  0
LINE
  5
2E
330
1E
100
AcDbEntity
  8
1
  6
Continuous
 62
     7
100
AcDbLine
 10
286.399439
 20
195.3901909999999
 30
0.0
 11
9.299438999999999
 21
195.3901909999999
 31
0.0
  0
LINE
  5
2F
330
1E
100
AcDbEntity
  8
1
  6
Continuous
 62
     7
100
AcDbLine
 10
9.299438999999999
 20
195.3901909999999
 30
0.0
 11
9.299438999999999
 21
5.290191
 31
0.0
  0
LINE
  5
30
330
1E
100
AcDbEntity
  8
1
  6
Continuous
 62
     7
100
AcDbLine
 10
9.299438999999999
 20
5.290191
 30
0.0
 11
286.399439
 21
5.290191
 31
0.0
  0
LINE
  5
31
330
1E
100
AcDbEntity
  8
1
  6
Continuous
 62
     7
100
AcDbLine
 10
96.399439
 20
5.290191
 30
0.0
 11
96.399439
 21
45.290191
 31
0.0
  0
LINE
  5
32
330
1E
100
AcDbEntity
  8
1
  6
Continuous
 62
     7
100
AcDbLine
 10
96.399439
 20
45.290191
 30
0.0
 11
286.399439
 21
45.290191
 31
0.0
  0
LINE
  5
33
330
1E
100
AcDbEntity
  8
1
  6
Continuous
 62
     7
100
AcDbLine
 10
96.399439
 20
35.290191
 30
0.0
 11
286.399439
 21
35.290191
 31
0.0
  0
LINE
  5
34
330
1E
100
AcDbEntity
  8
1
  6
Continuous
 62
     7
100
AcDbLine
 10
96.399439
 20
25.290191
 30
0.0
 11
286.399439
 21
25.290191
 31
0.0
  0
LINE
  5
35
330
1E
100
AcDbEntity
  8
1
  6
Continuous
 62
     7
100
AcDbLine
 10
96.399439
 20
15.290191
 30
0.0
 11
286.399439
 21
15.290191
 31
0.0
  0
LINE
  5
36
330
1E
100
AcDbEntity
  8
1
  6
Continuous
 62
     7
100
AcDbLine
 10
116.3994389999999
 20
45.290191
 30
0.0
 11
116.3994389999999
 21
5.290191
 31
0.0
  0
LINE
  5
37
330
1E
100
AcDbEntity
  8
1
  6
Continuous
 62
     7
100
AcDbLine
 10
136.399439
 20
5.290191
 30
0.0
 11
136.399439
 21
25.290191
 31
0.0
  0
LINE
  5
38
330
1E
100
AcDbEntity
  8
1
  6
Continuous
 62
     7
100
AcDbLine
 10
146.399439
 20
25.290191
 30
0.0
 11
146.399439
 21
45.290191
 31
0.0
  0
LINE
  5
39
330
1E
100
AcDbEntity
  8
1
  6
Continuous
 62
     7
100
AcDbLine
 10
156.3994389999999
 20
5.290191
 30
0.0
 11
156.3994389999999
 21
25.290191
 31
0.0
  0
LINE
  5
3A
330
1E
100
AcDbEntity
  8
1
  6
Continuous
 62
     7
100
AcDbLine
 10
166.399439
 20
25.290191
 30
0.0
 11
166.399439
 21
45.290191
 31
0.0
  0
LINE
  5
3B
330
1E
100
AcDbEntity
  8
1
  6
Continuous
 62
     7
100
AcDbLine
 10
176.399439
 20
25.290191
 30
0.0
 11
176.399439
 21
5.290191
 31
0.0
  0
LINE
  5
3C
330
1E
100
AcDbEntity
  8
1
  6
Continuous
 62
     7
100
AcDbLine
 10
196.399439
 20
5.290191
 30
0.0
 11
196.399439
 21
45.290191
 31
0.0
  0
LINE
  5
3D
330
1E
100
AcDbEntity
  8
1
  6
Continuous
 62
     7
100
AcDbLine
 10
216.399439
 20
45.290191
 30
0.0
 11
216.399439
 21
15.290191
 31
0.0
  0
LINE
  5
3E
330
1E
100
AcDbEntity
  8
1
  6
Continuous
 62
     7
100
AcDbLine
 10
276.399439
 20
5.290191
 30
0.0
 11
276.399439
 21
15.290191
 31
0.0
  0
TEXT
  5
3F
330
1E
100
AcDbEntity
  8
1
  6
Continuous
 62
     7
100
AcDbText
 10
101.1994389999999
 20
39.49019099999999
 30
0.0
 40
5.0
  1
尺度
 41
0.7
  7
KANJI
100
AcDbText
  0
TEXT
  5
40
330
1E
100
AcDbEntity
  8
1
  6
Continuous
 62
     7
100
AcDbText
 10
101.1994389999999
 20
29.19019099999999
 30
0.0
 40
5.0
  1
日付
 41
0.7
  7
KANJI
100
AcDbText
  0
TEXT
  5
41
330
1E
100
AcDbEntity
  8
1
  6
Continuous
 62
     7
100
AcDbText
 10
101.1994389999999
 20
19.090191
 30
0.0
 40
5.0
  1
承認
 41
0.7
  7
KANJI
100
AcDbText
  0
TEXT
  5
42
330
1E
100
AcDbEntity
  8
1
  6
Continuous
 62
     7
100
AcDbText
 10
121.1994389999999
 20
19.090191
 30
0.0
 40
5.0
  1
審査
 41
0.7
  7
KANJI
100
AcDbText
  0
TEXT
  5
43
330
1E
100
AcDbEntity
  8
1
  6
Continuous
 62
     7
100
AcDbText
 10
141.6994389999999
 20
19.090191
 30
0.0
 40
5.0
  1
検図
 41
0.7
  7
KANJI
100
AcDbText
  0
TEXT
  5
44
330
1E
100
AcDbEntity
  8
1
  6
Continuous
 62
     7
100
AcDbText
 10
161.999439
 20
19.090191
 30
0.0
 40
5.0
  1
設計
 41
0.7
  7
KANJI
100
AcDbText
  0
TEXT
  5
45
330
1E
100
AcDbEntity
  8
1
  6
Continuous
 62
     7
100
AcDbText
 10
181.7994389999999
 20
19.090191
 30
0.0
 40
5.0
  1
製図
 41
0.7
  7
KANJI
100
AcDbText
  0
TEXT
  5
46
330
1E
100
AcDbEntity
  8
1
  6
Continuous
 62
     7
100
AcDbText
 10
151.399439
 20
39.39019099999999
 30
0.0
 40
5.0
  1
製番
 41
0.7
  7
KANJI
100
AcDbText
  0
TEXT
  5
47
330
1E
100
AcDbEntity
  8
1
  6
Continuous
 62
     7
100
AcDbText
 10
151.399439
 20
29.090191
 30
0.0
 40
5.0
  1
図番
 41
0.7
  7
KANJI
100
AcDbText
  0
TEXT
  5
48
330
1E
100
AcDbEntity
  8
1
  6
Continuous
 62
     7
100
AcDbText
 10
198.7994389999999
 20
39.39019099999999
 30
0.0
 40
5.0
  1
納入先
 41
0.7
  7
KANJI
100
AcDbText
  0
TEXT
  5
49
330
1E
100
AcDbEntity
  8
1
  6
Continuous
 62
     7
100
AcDbText
 10
201.499439
 20
29.090191
 30
0.0
 40
5.0
  1
名称
 41
0.7
  7
KANJI
100
AcDbText
  0
TEXT
  5
4A
330
1E
100
AcDbEntity
  8
1
  6
Continuous
 62
     7
100
AcDbText
 10
201.399439
 20
19.090191
 30
0.0
 40
5.0
  1
図称
 41
0.7
  7
KANJI
100
AcDbText
  0
TEXT
  5
4B
330
1E
100
AcDbEntity
  8
1
  6
Continuous
 62
     7
100
AcDbText
 10
198.6994389999999
 20
9.590191
 30
0.0
 40
5.0
  1
（株）パーカーコーポレーション
 41
0.7
  7
KANJI
100
AcDbText
  0
TEXT
  5
4C
330
1E
100
AcDbEntity
  8
1
  6
Continuous
 62
     7
100
AcDbText
 10
101.9994389999999
 20
35.690191
 30
0.0
 40
3.0
  1
SCALE
 41
0.5
  7
KANJI
100
AcDbText
  0
TEXT
  5
4D
330
1E
100
AcDbEntity
  8
1
  6
Continuous
 62
     7
100
AcDbText
 10
102.9994389999999
 20
25.290191
 30
0.0
 40
3.0
  1
DATE
 41
0.5
  7
KANJI
100
AcDbText
  0
TEXT
  5
4E
330
1E
100
AcDbEntity
  8
1
  6
Continuous
 62
     7
100
AcDbText
 10
97.69943900000001
 20
15.290191
 30
0.0
 40
3.0
  1
APPROVED
 41
0.5
  7
KANJI
100
AcDbText
  0
TEXT
  5
4F
330
1E
100
AcDbEntity
  8
1
  6
Continuous
 62
     7
100
AcDbText
 10
111.599439
 20
15.290191
 30
0.0
 40
3.0
  1
BY
 41
0.5
  7
KANJI
100
AcDbText
  0
TEXT
  5
50
330
1E
100
AcDbEntity
  8
1
  6
Continuous
 62
     7
100
AcDbText
 10
117.2994389999999
 20
15.290191
 30
0.0
 40
3.0
  1
INSPECTED
 41
0.5
  7
KANJI
100
AcDbText
  0
TEXT
  5
51
330
1E
100
AcDbEntity
  8
1
  6
Continuous
 62
     7
100
AcDbText
 10
132.0994389999999
 20
15.290191
 30
0.0
 40
3.0
  1
BY
 41
0.5
  7
KANJI
100
AcDbText
  0
TEXT
  5
52
330
1E
100
AcDbEntity
  8
1
  6
Continuous
 62
     7
100
AcDbText
 10
139.0994389999999
 20
15.290191
 30
0.0
 40
3.0
  1
CHECKED
 41
0.5
  7
KANJI
100
AcDbText
  0
TEXT
  5
53
330
1E
100
AcDbEntity
  8
1
  6
Continuous
 62
     7
100
AcDbText
 10
150.7994389999999
 20
15.290191
 30
0.0
 40
3.0
  1
BY
 41
0.5
  7
KANJI
100
AcDbText
  0
TEXT
  5
54
330
1E
100
AcDbEntity
  8
1
  6
Continuous
 62
     7
100
AcDbText
 10
156.9994389999999
 20
15.290191
 30
0.0
 40
3.0
  1
DESINGNED
 41
0.5
  7
KANJI
100
AcDbText
  0
TEXT
  5
55
330
1E
100
AcDbEntity
  8
1
  6
Continuous
 62
     7
100
AcDbText
 10
171.8994389999999
 20
15.290191
 30
0.0
 40
3.0
  1
BY
 41
0.5
  7
KANJI
100
AcDbText
  0
TEXT
  5
56
330
1E
100
AcDbEntity
  8
1
  6
Continuous
 62
     7
100
AcDbText
 10
180.2994389999999
 20
15.290191
 30
0.0
 40
3.0
  1
DRAWN
 41
0.5
  7
KANJI
100
AcDbText
  0
TEXT
  5
57
330
1E
100
AcDbEntity
  8
1
  6
Continuous
 62
     7
100
AcDbText
 10
189.3994389999999
 20
15.290191
 30
0.0
 40
3.0
  1
BY
 41
0.5
  7
KANJI
100
AcDbText
  0
TEXT
  5
58
330
1E
100
AcDbEntity
  8
1
  6
Continuous
 62
     7
100
AcDbText
 10
149.499439
 20
35.290191
 30
0.0
 40
3.0
  1
WORK
 41
0.5
  7
KANJI
100
AcDbText
  0
TEXT
  5
59
330
1E
100
AcDbEntity
  8
1
  6
Continuous
 62
     7
100
AcDbText
 10
157.399439
 20
35.290191
 30
0.0
 40
3.0
  1
No.
 41
0.576923
  7
KANJI
100
AcDbText
  0
TEXT
  5
5A
330
1E
100
AcDbEntity
  8
1
  6
Continuous
 62
     7
100
AcDbText
 10
151.499439
 20
25.290191
 30
0.0
 40
3.0
  1
DWG
 41
0.5
  7
KANJI
100
AcDbText
  0
TEXT
  5
5B
330
1E
100
AcDbEntity
  8
1
  6
Continuous
 62
     7
100
AcDbText
 10
156.3994389999999
 20
25.290191
 30
0.0
 40
3.0
  1
No.
 41
0.576923
  7
KANJI
100
AcDbText
  0
TEXT
  5
5C
330
1E
100
AcDbEntity
  8
1
  6
Continuous
 62
     7
100
AcDbText
 10
200.0994389999999
 20
35.290191
 30
0.0
 40
3.0
  1
CUSTOMER
 41
0.5
  7
KANJI
100
AcDbText
  0
TEXT
  5
5D
330
1E
100
AcDbEntity
  8
1
  6
Continuous
 62
     7
100
AcDbText
 10
202.899439
 20
25.290191
 30
0.0
 40
3.0
  1
TITLE
 41
0.5
  7
KANJI
100
AcDbText
  0
TEXT
  5
5E
330
1E
100
AcDbEntity
  8
1
  6
Continuous
 62
     7
100
AcDbText
 10
201.499439
 20
15.290191
 30
0.0
 40
3.0
  1
DWG
 41
0.5
  7
KANJI
100
AcDbText
  0
TEXT
  5
5F
330
1E
100
AcDbEntity
  8
1
  6
Continuous
 62
     7
100
AcDbText
 10
206.7994389999999
 20
15.290191
 30
0.0
 40
3.0
  1
NAME
 41
0.5
  7
KANJI
100
AcDbText
  0
TEXT
  5
60
330
1E
100
AcDbEntity
  8
1
  6
Continuous
 62
     7
100
AcDbText
 10
213.499439
 20
5.290191
 30
0.0
 40
3.0
  1
PARKER
 41
0.777778
  7
KANJI
100
AcDbText
  0
TEXT
  5
61
330
1E
100
AcDbEntity
  8
1
  6
Continuous
 62
     7
100
AcDbText
 10
231.099439
 20
5.290191
 30
0.0
 40
3.0
  1
CORPORATION
 41
0.80303
  7
KANJI
100
AcDbText
  0
LINE
  5
62
330
1E
100
AcDbEntity
  8
1
  6
Continuous
 62
     7
100
AcDbLine
 10
28.634529
 20
72.918161
 30
0.0
 11
266.914154
 21
72.918161
 31
0.0
  0
ARC
  5
63
330
1E
100
AcDbEntity
  8
1
  6
Continuous
 62
     7
100
AcDbCircle
 10
172.9420789999999
 20
118.158161
 30
0.0
 40
0.26
100
AcDbArc
 50
90.0
 51
270.0
  0
LINE
  5
64
330
1E
100
AcDbEntity
  8
1
  6
Continuous
 62
     7
100
AcDbLine
 10
172.9420789999999
 20
121.798161
 30
0.0
 11
175.022079
 21
121.798161
 31
0.0
  0
LINE
  5
65
330
1E
100
AcDbEntity
  8
1
  6
Continuous
 62
     7
100
AcDbLine
 10
172.9420789999999
 20
122.318161
 30
0.0
 11
175.022079
 21
122.318161
 31
0.0
  0
ARC
  5
66
330
1E
100
AcDbEntity
  8
1
  6
Continuous
 62
     7
100
AcDbCircle
 10
175.022079
 20
122.058161
 30
0.0
 40
0.26
100
AcDbArc
 50
270.0
 51
90.0
  0
ARC
  5
67
330
1E
100
AcDbEntity
  8
1
  6
Continuous
 62
     7
100
AcDbCircle
 10
175.022079
 20
122.058161
 30
0.0
 40
0.26
100
AcDbArc
 50
270.0
 51
90.0
  0
LINE
  5
68
330
1E
100
AcDbEntity
  8
1
  6
Continuous
 62
     7
100
AcDbLine
 10
172.9420789999999
 20
122.318161
 30
0.0
 11
175.022079
 21
122.318161
 31
0.0
  0
ARC
  5
69
330
1E
100
AcDbEntity
  8
1
  6
Continuous
 62
     7
100
AcDbCircle
 10
175.022079
 20
118.158161
 30
0.0
 40
0.26
100
AcDbArc
 50
270.0
 51
90.0
  0
LINE
  5
6A
330
1E
100
AcDbEntity
  8
1
  6
Continuous
 62
     7
100
AcDbLine
 10
172.9420789999999
 20
121.798161
 30
0.0
 11
175.022079
 21
121.798161
 31
0.0
  0
LINE
  5
6B
330
1E
100
AcDbEntity
  8
1
  6
Continuous
 62
     7
100
AcDbLine
 10
172.9420789999999
 20
118.418161
 30
0.0
 11
175.022079
 21
118.418161
 31
0.0
  0
LINE
  5
6C
330
1E
100
AcDbEntity
  8
1
  6
Continuous
 62
     7
100
AcDbLine
 10
172.9420789999999
 20
125.698161
 30
0.0
 11
175.022079
 21
125.698161
 31
0.0
  0
LINE
  5
6D
330
1E
100
AcDbEntity
  8
1
  6
Continuous
 62
     7
100
AcDbLine
 10
172.9420789999999
 20
117.898161
 30
0.0
 11
175.022079
 21
117.898161
 31
0.0
  0
LINE
  5
6E
330
1E
100
AcDbEntity
  8
1
  6
Continuous
 62
     7
100
AcDbLine
 10
172.9420789999999
 20
118.418161
 30
0.0
 11
175.022079
 21
118.418161
 31
0.0
  0
LINE
  5
6F
330
1E
100
AcDbEntity
  8
1
  6
Continuous
 62
     7
100
AcDbLine
 10
172.9420789999999
 20
125.698161
 30
0.0
 11
175.022079
 21
125.698161
 31
0.0
  0
LINE
  5
70
330
1E
100
AcDbEntity
  8
1
  6
Continuous
 62
     7
100
AcDbLine
 10
172.9420789999999
 20
122.318161
 30
0.0
 11
175.022079
 21
122.318161
 31
0.0
  0
LINE
  5
71
330
1E
100
AcDbEntity
  8
1
  6
Continuous
 62
     7
100
AcDbLine
 10
172.9420789999999
 20
121.798161
 30
0.0
 11
175.022079
 21
121.798161
 31
0.0
  0
ARC
  5
72
330
1E
100
AcDbEntity
  8
1
  6
Continuous
 62
     7
100
AcDbCircle
 10
172.9420789999999
 20
125.958161
 30
0.0
 40
0.26
100
AcDbArc
 50
90.0
 51
270.0
  0
ARC
  5
73
330
1E
100
AcDbEntity
  8
1
  6
Continuous
 62
     7
100
AcDbCircle
 10
172.9420789999999
 20
118.158161
 30
0.0
 40
0.26
100
AcDbArc
 50
90.0
 51
270.0
  0
ARC
  5
74
330
1E
100
AcDbEntity
  8
1
  6
Continuous
 62
     7
100
AcDbCircle
 10
172.9420789999999
 20
118.158161
 30
0.0
 40
0.26
100
AcDbArc
 50
90.0
 51
270.0
  0
ARC
  5
75
330
1E
100
AcDbEntity
  8
1
  6
Continuous
 62
     7
100
AcDbCircle
 10
172.9420789999999
 20
118.158161
 30
0.0
 40
0.26
100
AcDbArc
 50
90.0
 51
270.0
  0
ARC
  5
76
330
1E
100
AcDbEntity
  8
1
  6
Continuous
 62
     7
100
AcDbCircle
 10
172.9420789999999
 20
106.458161
 30
0.0
 40
0.26
100
AcDbArc
 50
90.0
 51
270.0
  0
ARC
  5
77
330
1E
100
AcDbEntity
  8
1
  6
Continuous
 62
     7
100
AcDbCircle
 10
172.9420789999999
 20
106.458161
 30
0.0
 40
0.26
100
AcDbArc
 50
90.0
 51
270.0
  0
ARC
  5
78
330
1E
100
AcDbEntity
  8
1
  6
Continuous
 62
     7
100
AcDbCircle
 10
172.9420789999999
 20
110.358161
 30
0.0
 40
0.26
100
AcDbArc
 50
90.0
 51
270.0
  0
LINE
  5
79
330
1E
100
AcDbEntity
  8
1
  6
Continuous
 62
     7
100
AcDbLine
 10
172.9420789999999
 20
118.418161
 30
0.0
 11
175.022079
 21
118.418161
 31
0.0
  0
ARC
  5
7A
330
1E
100
AcDbEntity
  8
1
  6
Continuous
 62
     7
100
AcDbCircle
 10
175.022079
 20
125.958161
 30
0.0
 40
0.26
100
AcDbArc
 50
270.0
 51
90.0
  0
ARC
  5
7B
330
1E
100
AcDbEntity
  8
1
  6
Continuous
 62
     7
100
AcDbCircle
 10
172.9420789999999
 20
125.958161
 30
0.0
 40
0.26
100
AcDbArc
 50
90.0
 51
270.0
  0
ARC
  5
7C
330
1E
100
AcDbEntity
  8
1
  6
Continuous
 62
     7
100
AcDbCircle
 10
172.9420789999999
 20
122.058161
 30
0.0
 40
0.26
100
AcDbArc
 50
90.0
 51
270.0
  0
ARC
  5
7D
330
1E
100
AcDbEntity
  8
1
  6
Continuous
 62
     7
100
AcDbCircle
 10
172.9420789999999
 20
122.058161
 30
0.0
 40
0.26
100
AcDbArc
 50
90.0
 51
270.0
  0
LINE
  5
7E
330
1E
100
AcDbEntity
  8
1
  6
Continuous
 62
     7
100
AcDbLine
 10
172.9420789999999
 20
117.898161
 30
0.0
 11
175.022079
 21
117.898161
 31
0.0
  0
LINE
  5
7F
330
1E
100
AcDbEntity
  8
1
  6
Continuous
 62
     7
100
AcDbLine
 10
172.9420789999999
 20
126.218161
 30
0.0
 11
175.022079
 21
126.218161
 31
0.0
  0
LINE
  5
80
330
1E
100
AcDbEntity
  8
1
  6
Continuous
 62
     7
100
AcDbLine
 10
172.9420789999999
 20
125.698161
 30
0.0
 11
175.022079
 21
125.698161
 31
0.0
  0
LINE
  5
81
330
1E
100
AcDbEntity
  8
1
  6
Continuous
 62
     7
100
AcDbLine
 10
172.9420789999999
 20
117.898161
 30
0.0
 11
175.022079
 21
117.898161
 31
0.0
  0
ARC
  5
82
330
1E
100
AcDbEntity
  8
1
  6
Continuous
 62
     7
100
AcDbCircle
 10
172.9420789999999
 20
110.358161
 30
0.0
 40
0.26
100
AcDbArc
 50
90.0
 51
270.0
  0
ARC
  5
83
330
1E
100
AcDbEntity
  8
1
  6
Continuous
 62
     7
100
AcDbCircle
 10
172.9420789999999
 20
102.5581609999999
 30
0.0
 40
0.26
100
AcDbArc
 50
90.0
 51
270.0
  0
ARC
  5
84
330
1E
100
AcDbEntity
  8
1
  6
Continuous
 62
     7
100
AcDbCircle
 10
175.022079
 20
118.158161
 30
0.0
 40
0.26
100
AcDbArc
 50
270.0
 51
90.0
  0
ARC
  5
85
330
1E
100
AcDbEntity
  8
1
  6
Continuous
 62
     7
100
AcDbCircle
 10
175.022079
 20
118.158161
 30
0.0
 40
0.26
100
AcDbArc
 50
270.0
 51
90.0
  0
LINE
  5
86
330
1E
100
AcDbEntity
  8
1
  6
Continuous
 62
     7
100
AcDbLine
 10
172.9420789999999
 20
118.418161
 30
0.0
 11
175.022079
 21
118.418161
 31
0.0
  0
LINE
  5
87
330
1E
100
AcDbEntity
  8
1
  6
Continuous
 62
     7
100
AcDbLine
 10
172.9420789999999
 20
117.898161
 30
0.0
 11
175.022079
 21
117.898161
 31
0.0
  0
LINE
  5
88
330
1E
100
AcDbEntity
  8
1
  6
Continuous
 62
     7
100
AcDbLine
 10
172.9420789999999
 20
125.698161
 30
0.0
 11
175.022079
 21
125.698161
 31
0.0
  0
LINE
  5
89
330
1E
100
AcDbEntity
  8
1
  6
Continuous
 62
     7
100
AcDbLine
 10
172.9420789999999
 20
121.798161
 30
0.0
 11
175.022079
 21
121.798161
 31
0.0
  0
LINE
  5
8A
330
1E
100
AcDbEntity
  8
1
  6
Continuous
 62
     7
100
AcDbLine
 10
172.9420789999999
 20
122.318161
 30
0.0
 11
175.022079
 21
122.318161
 31
0.0
  0
ARC
  5
8B
330
1E
100
AcDbEntity
  8
1
  6
Continuous
 62
     7
100
AcDbCircle
 10
175.022079
 20
122.058161
 30
0.0
 40
0.26
100
AcDbArc
 50
270.0
 51
90.0
  0
ARC
  5
8C
330
1E
100
AcDbEntity
  8
1
  6
Continuous
 62
     7
100
AcDbCircle
 10
175.022079
 20
122.058161
 30
0.0
 40
0.26
100
AcDbArc
 50
270.0
 51
90.0
  0
LINE
  5
8D
330
1E
100
AcDbEntity
  8
1
  6
Continuous
 62
     7
100
AcDbLine
 10
172.9420789999999
 20
102.2981609999999
 30
0.0
 11
175.022079
 21
102.2981609999999
 31
0.0
  0
LINE
  5
8E
330
1E
100
AcDbEntity
  8
1
  6
Continuous
 62
     7
100
AcDbLine
 10
172.9420789999999
 20
102.818161
 30
0.0
 11
175.022079
 21
102.818161
 31
0.0
  0
LINE
  5
8F
330
1E
100
AcDbEntity
  8
1
  6
Continuous
 62
     7
100
AcDbLine
 10
172.9420789999999
 20
106.198161
 30
0.0
 11
175.022079
 21
106.198161
 31
0.0
  0
ARC
  5
90
330
1E
100
AcDbEntity
  8
1
  6
Continuous
 62
     7
100
AcDbCircle
 10
175.022079
 20
102.5581609999999
 30
0.0
 40
0.26
100
AcDbArc
 50
270.0
 51
90.0
  0
LINE
  5
91
330
1E
100
AcDbEntity
  8
1
  6
Continuous
 62
     7
100
AcDbLine
 10
172.9420789999999
 20
110.098161
 30
0.0
 11
175.022079
 21
110.098161
 31
0.0
  0
LINE
  5
92
330
1E
100
AcDbEntity
  8
1
  6
Continuous
 62
     7
100
AcDbLine
 10
172.9420789999999
 20
110.618161
 30
0.0
 11
175.022079
 21
110.618161
 31
0.0
  0
ARC
  5
93
330
1E
100
AcDbEntity
  8
1
  6
Continuous
 62
     7
100
AcDbCircle
 10
175.022079
 20
110.358161
 30
0.0
 40
0.26
100
AcDbArc
 50
270.0
 51
90.0
  0
LINE
  5
94
330
1E
100
AcDbEntity
  8
1
  6
Continuous
 62
     7
100
AcDbLine
 10
172.9420789999999
 20
106.718161
 30
0.0
 11
175.022079
 21
106.718161
 31
0.0
  0
LINE
  5
95
330
1E
100
AcDbEntity
  8
1
  6
Continuous
 62
     7
100
AcDbLine
 10
172.9420789999999
 20
102.818161
 30
0.0
 11
175.022079
 21
102.818161
 31
0.0
  0
ARC
  5
96
330
1E
100
AcDbEntity
  8
1
  6
Continuous
 62
     7
100
AcDbCircle
 10
172.9420789999999
 20
102.5581609999999
 30
0.0
 40
0.26
100
AcDbArc
 50
90.0
 51
270.0
  0
ARC
  5
97
330
1E
100
AcDbEntity
  8
1
  6
Continuous
 62
     7
100
AcDbCircle
 10
175.022079
 20
102.5581609999999
 30
0.0
 40
0.26
100
AcDbArc
 50
270.0
 51
90.0
  0
ARC
  5
98
330
1E
100
AcDbEntity
  8
1
  6
Continuous
 62
     7
100
AcDbCircle
 10
175.022079
 20
102.5581609999999
 30
0.0
 40
0.26
100
AcDbArc
 50
270.0
 51
90.0
  0
LINE
  5
99
330
1E
100
AcDbEntity
  8
1
  6
Continuous
 62
     7
100
AcDbLine
 10
172.9420789999999
 20
102.818161
 30
0.0
 11
175.022079
 21
102.818161
 31
0.0
  0
LINE
  5
9A
330
1E
100
AcDbEntity
  8
1
  6
Continuous
 62
     7
100
AcDbLine
 10
172.9420789999999
 20
106.198161
 30
0.0
 11
175.022079
 21
106.198161
 31
0.0
  0
LINE
  5
9B
330
1E
100
AcDbEntity
  8
1
  6
Continuous
 62
     7
100
AcDbLine
 10
172.9420789999999
 20
106.718161
 30
0.0
 11
175.022079
 21
106.718161
 31
0.0
  0
ARC
  5
9C
330
1E
100
AcDbEntity
  8
1
  6
Continuous
 62
     7
100
AcDbCircle
 10
175.022079
 20
118.158161
 30
0.0
 40
0.26
100
AcDbArc
 50
270.0
 51
90.0
  0
LINE
  5
9D
330
1E
100
AcDbEntity
  8
1
  6
Continuous
 62
     7
100
AcDbLine
 10
172.9420789999999
 20
126.218161
 30
0.0
 11
175.022079
 21
126.218161
 31
0.0
  0
ARC
  5
9E
330
1E
100
AcDbEntity
  8
1
  6
Continuous
 62
     7
100
AcDbCircle
 10
175.022079
 20
125.958161
 30
0.0
 40
0.26
100
AcDbArc
 50
270.0
 51
90.0
  0
ARC
  5
9F
330
1E
100
AcDbEntity
  8
1
  6
Continuous
 62
     7
100
AcDbCircle
 10
175.022079
 20
106.458161
 30
0.0
 40
0.26
100
AcDbArc
 50
270.0
 51
90.0
  0
LINE
  5
A0
330
1E
100
AcDbEntity
  8
1
  6
Continuous
 62
     7
100
AcDbLine
 10
172.9420789999999
 20
110.098161
 30
0.0
 11
175.022079
 21
110.098161
 31
0.0
  0
ARC
  5
A1
330
1E
100
AcDbEntity
  8
1
  6
Continuous
 62
     7
100
AcDbCircle
 10
172.9420789999999
 20
122.058161
 30
0.0
 40
0.26
100
AcDbArc
 50
90.0
 51
270.0
  0
ARC
  5
A2
330
1E
100
AcDbEntity
  8
1
  6
Continuous
 62
     7
100
AcDbCircle
 10
172.9420789999999
 20
122.058161
 30
0.0
 40
0.26
100
AcDbArc
 50
90.0
 51
270.0
  0
ARC
  5
A3
330
1E
100
AcDbEntity
  8
1
  6
Continuous
 62
     7
100
AcDbCircle
 10
172.9420789999999
 20
125.958161
 30
0.0
 40
0.26
100
AcDbArc
 50
90.0
 51
270.0
  0
ARC
  5
A4
330
1E
100
AcDbEntity
  8
1
  6
Continuous
 62
     7
100
AcDbCircle
 10
172.9420789999999
 20
125.958161
 30
0.0
 40
0.26
100
AcDbArc
 50
90.0
 51
270.0
  0
LINE
  5
A5
330
1E
100
AcDbEntity
  8
1
  6
Continuous
 62
     7
100
AcDbLine
 10
172.9420789999999
 20
113.998161
 30
0.0
 11
175.022079
 21
113.998161
 31
0.0
  0
LINE
  5
A6
330
1E
100
AcDbEntity
  8
1
  6
Continuous
 62
     7
100
AcDbLine
 10
172.9420789999999
 20
114.518161
 30
0.0
 11
175.022079
 21
114.518161
 31
0.0
  0
ARC
  5
A7
330
1E
100
AcDbEntity
  8
1
  6
Continuous
 62
     7
100
AcDbCircle
 10
175.022079
 20
114.258161
 30
0.0
 40
0.26
100
AcDbArc
 50
270.0
 51
90.0
  0
ARC
  5
A8
330
1E
100
AcDbEntity
  8
1
  6
Continuous
 62
     7
100
AcDbCircle
 10
175.022079
 20
114.258161
 30
0.0
 40
0.26
100
AcDbArc
 50
270.0
 51
90.0
  0
ARC
  5
A9
330
1E
100
AcDbEntity
  8
1
  6
Continuous
 62
     7
100
AcDbCircle
 10
175.022079
 20
114.258161
 30
0.0
 40
0.26
100
AcDbArc
 50
270.0
 51
90.0
  0
LINE
  5
AA
330
1E
100
AcDbEntity
  8
1
  6
Continuous
 62
     7
100
AcDbLine
 10
172.9420789999999
 20
114.518161
 30
0.0
 11
175.022079
 21
114.518161
 31
0.0
  0
LINE
  5
AB
330
1E
100
AcDbEntity
  8
1
  6
Continuous
 62
     7
100
AcDbLine
 10
172.9420789999999
 20
113.998161
 30
0.0
 11
175.022079
 21
113.998161
 31
0.0
  0
LINE
  5
AC
330
1E
100
AcDbEntity
  8
1
  6
Continuous
 62
     7
100
AcDbLine
 10
172.9420789999999
 20
113.998161
 30
0.0
 11
175.022079
 21
113.998161
 31
0.0
  0
ARC
  5
AD
330
1E
100
AcDbEntity
  8
1
  6
Continuous
 62
     7
100
AcDbCircle
 10
175.022079
 20
110.358161
 30
0.0
 40
0.26
100
AcDbArc
 50
270.0
 51
90.0
  0
LINE
  5
AE
330
1E
100
AcDbEntity
  8
1
  6
Continuous
 62
     7
100
AcDbLine
 10
172.9420789999999
 20
102.2981609999999
 30
0.0
 11
175.022079
 21
102.2981609999999
 31
0.0
  0
LINE
  5
AF
330
1E
100
AcDbEntity
  8
1
  6
Continuous
 62
     7
100
AcDbLine
 10
172.9420789999999
 20
106.198161
 30
0.0
 11
175.022079
 21
106.198161
 31
0.0
  0
LINE
  5
B0
330
1E
100
AcDbEntity
  8
1
  6
Continuous
 62
     7
100
AcDbLine
 10
172.9420789999999
 20
106.718161
 30
0.0
 11
175.022079
 21
106.718161
 31
0.0
  0
ARC
  5
B1
330
1E
100
AcDbEntity
  8
1
  6
Continuous
 62
     7
100
AcDbCircle
 10
172.9420789999999
 20
110.358161
 30
0.0
 40
0.26
100
AcDbArc
 50
90.0
 51
270.0
  0
ARC
  5
B2
330
1E
100
AcDbEntity
  8
1
  6
Continuous
 62
     7
100
AcDbCircle
 10
172.9420789999999
 20
102.5581609999999
 30
0.0
 40
0.26
100
AcDbArc
 50
90.0
 51
270.0
  0
ARC
  5
B3
330
1E
100
AcDbEntity
  8
1
  6
Continuous
 62
     7
100
AcDbCircle
 10
172.9420789999999
 20
102.5581609999999
 30
0.0
 40
0.26
100
AcDbArc
 50
90.0
 51
270.0
  0
ARC
  5
B4
330
1E
100
AcDbEntity
  8
1
  6
Continuous
 62
     7
100
AcDbCircle
 10
172.9420789999999
 20
106.458161
 30
0.0
 40
0.26
100
AcDbArc
 50
90.0
 51
270.0
  0
ARC
  5
B5
330
1E
100
AcDbEntity
  8
1
  6
Continuous
 62
     7
100
AcDbCircle
 10
172.9420789999999
 20
106.458161
 30
0.0
 40
0.26
100
AcDbArc
 50
90.0
 51
270.0
  0
ARC
  5
B6
330
1E
100
AcDbEntity
  8
1
  6
Continuous
 62
     7
100
AcDbCircle
 10
175.022079
 20
110.358161
 30
0.0
 40
0.26
100
AcDbArc
 50
270.0
 51
90.0
  0
ARC
  5
B7
330
1E
100
AcDbEntity
  8
1
  6
Continuous
 62
     7
100
AcDbCircle
 10
175.022079
 20
106.458161
 30
0.0
 40
0.26
100
AcDbArc
 50
270.0
 51
90.0
  0
LINE
  5
B8
330
1E
100
AcDbEntity
  8
1
  6
Continuous
 62
     7
100
AcDbLine
 10
172.9420789999999
 20
126.218161
 30
0.0
 11
175.022079
 21
126.218161
 31
0.0
  0
ARC
  5
B9
330
1E
100
AcDbEntity
  8
1
  6
Continuous
 62
     7
100
AcDbCircle
 10
175.022079
 20
125.958161
 30
0.0
 40
0.26
100
AcDbArc
 50
270.0
 51
90.0
  0
ARC
  5
BA
330
1E
100
AcDbEntity
  8
1
  6
Continuous
 62
     7
100
AcDbCircle
 10
175.022079
 20
125.958161
 30
0.0
 40
0.26
100
AcDbArc
 50
270.0
 51
90.0
  0
ARC
  5
BB
330
1E
100
AcDbEntity
  8
1
  6
Continuous
 62
     7
100
AcDbCircle
 10
172.9420789999999
 20
98.65816099999999
 30
0.0
 40
0.26
100
AcDbArc
 50
90.0
 51
270.0
  0
LINE
  5
BC
330
1E
100
AcDbEntity
  8
1
  6
Continuous
 62
     7
100
AcDbLine
 10
172.9420789999999
 20
126.218161
 30
0.0
 11
175.022079
 21
126.218161
 31
0.0
  0
ARC
  5
BD
330
1E
100
AcDbEntity
  8
1
  6
Continuous
 62
     7
100
AcDbCircle
 10
175.022079
 20
106.458161
 30
0.0
 40
0.26
100
AcDbArc
 50
270.0
 51
90.0
  0
ARC
  5
BE
330
1E
100
AcDbEntity
  8
1
  6
Continuous
 62
     7
100
AcDbCircle
 10
175.022079
 20
106.458161
 30
0.0
 40
0.26
100
AcDbArc
 50
270.0
 51
90.0
  0
LINE
  5
BF
330
1E
100
AcDbEntity
  8
1
  6
Continuous
 62
     7
100
AcDbLine
 10
172.9420789999999
 20
106.718161
 30
0.0
 11
175.022079
 21
106.718161
 31
0.0
  0
LINE
  5
C0
330
1E
100
AcDbEntity
  8
1
  6
Continuous
 62
     7
100
AcDbLine
 10
172.9420789999999
 20
106.198161
 30
0.0
 11
175.022079
 21
106.198161
 31
0.0
  0
LINE
  5
C1
330
1E
100
AcDbEntity
  8
1
  6
Continuous
 62
     7
100
AcDbLine
 10
172.9420789999999
 20
102.818161
 30
0.0
 11
175.022079
 21
102.818161
 31
0.0
  0
ARC
  5
C2
330
1E
100
AcDbEntity
  8
1
  6
Continuous
 62
     7
100
AcDbCircle
 10
172.9420789999999
 20
114.258161
 30
0.0
 40
0.26
100
AcDbArc
 50
90.0
 51
270.0
  0
ARC
  5
C3
330
1E
100
AcDbEntity
  8
1
  6
Continuous
 62
     7
100
AcDbCircle
 10
172.9420789999999
 20
114.258161
 30
0.0
 40
0.26
100
AcDbArc
 50
90.0
 51
270.0
  0
ARC
  5
C4
330
1E
100
AcDbEntity
  8
1
  6
Continuous
 62
     7
100
AcDbCircle
 10
172.9420789999999
 20
114.258161
 30
0.0
 40
0.26
100
AcDbArc
 50
90.0
 51
270.0
  0
ARC
  5
C5
330
1E
100
AcDbEntity
  8
1
  6
Continuous
 62
     7
100
AcDbCircle
 10
175.022079
 20
102.5581609999999
 30
0.0
 40
0.26
100
AcDbArc
 50
270.0
 51
90.0
  0
LINE
  5
C6
330
1E
100
AcDbEntity
  8
1
  6
Continuous
 62
     7
100
AcDbLine
 10
172.9420789999999
 20
114.518161
 30
0.0
 11
175.022079
 21
114.518161
 31
0.0
  0
LINE
  5
C7
330
1E
100
AcDbEntity
  8
1
  6
Continuous
 62
     7
100
AcDbLine
 10
172.9420789999999
 20
113.998161
 30
0.0
 11
175.022079
 21
113.998161
 31
0.0
  0
LINE
  5
C8
330
1E
100
AcDbEntity
  8
1
  6
Continuous
 62
     7
100
AcDbLine
 10
172.9420789999999
 20
114.518161
 30
0.0
 11
175.022079
 21
114.518161
 31
0.0
  0
LINE
  5
C9
330
1E
100
AcDbEntity
  8
1
  6
Continuous
 62
     7
100
AcDbLine
 10
172.9420789999999
 20
102.2981609999999
 30
0.0
 11
175.022079
 21
102.2981609999999
 31
0.0
  0
LINE
  5
CA
330
1E
100
AcDbEntity
  8
1
  6
Continuous
 62
     7
100
AcDbLine
 10
172.9420789999999
 20
102.2981609999999
 30
0.0
 11
175.022079
 21
102.2981609999999
 31
0.0
  0
LINE
  5
CB
330
1E
100
AcDbEntity
  8
1
  6
Continuous
 62
     7
100
AcDbLine
 10
172.9420789999999
 20
110.618161
 30
0.0
 11
175.022079
 21
110.618161
 31
0.0
  0
LINE
  5
CC
330
1E
100
AcDbEntity
  8
1
  6
Continuous
 62
     7
100
AcDbLine
 10
172.9420789999999
 20
110.098161
 30
0.0
 11
175.022079
 21
110.098161
 31
0.0
  0
ARC
  5
CD
330
1E
100
AcDbEntity
  8
1
  6
Continuous
 62
     7
100
AcDbCircle
 10
175.022079
 20
110.358161
 30
0.0
 40
0.26
100
AcDbArc
 50
270.0
 51
90.0
  0
LINE
  5
CE
330
1E
100
AcDbEntity
  8
1
  6
Continuous
 62
     7
100
AcDbLine
 10
172.9420789999999
 20
110.618161
 30
0.0
 11
175.022079
 21
110.618161
 31
0.0
  0
LINE
  5
CF
330
1E
100
AcDbEntity
  8
1
  6
Continuous
 62
     7
100
AcDbLine
 10
172.9420789999999
 20
110.098161
 30
0.0
 11
175.022079
 21
110.098161
 31
0.0
  0
LINE
  5
D0
330
1E
100
AcDbEntity
  8
1
  6
Continuous
 62
     7
100
AcDbLine
 10
172.9420789999999
 20
110.618161
 30
0.0
 11
175.022079
 21
110.618161
 31
0.0
  0
ARC
  5
D1
330
1E
100
AcDbEntity
  8
1
  6
Continuous
 62
     7
100
AcDbCircle
 10
172.9420789999999
 20
110.358161
 30
0.0
 40
0.26
100
AcDbArc
 50
90.0
 51
270.0
  0
ARC
  5
D2
330
1E
100
AcDbEntity
  8
1
  6
Continuous
 62
     7
100
AcDbCircle
 10
175.022079
 20
114.258161
 30
0.0
 40
0.26
100
AcDbArc
 50
270.0
 51
90.0
  0
ARC
  5
D3
330
1E
100
AcDbEntity
  8
1
  6
Continuous
 62
     7
100
AcDbCircle
 10
172.9420789999999
 20
114.258161
 30
0.0
 40
0.26
100
AcDbArc
 50
90.0
 51
270.0
  0
LINE
  5
D4
330
1E
100
AcDbEntity
  8
1
  6
Continuous
 62
     7
100
AcDbLine
 10
159.2920789999999
 20
108.668161
 30
0.0
 11
161.372079
 21
108.668161
 31
0.0
  0
ARC
  5
D5
330
1E
100
AcDbEntity
  8
1
  6
Continuous
 62
     7
100
AcDbCircle
 10
159.422079
 20
106.458161
 30
0.0
 40
0.26
100
AcDbArc
 50
270.0
 51
90.0
  0
LINE
  5
D6
330
1E
100
AcDbEntity
  8
1
  6
Continuous
 62
     7
100
AcDbLine
 10
157.342079
 20
106.718161
 30
0.0
 11
159.422079
 21
106.718161
 31
0.0
  0
LINE
  5
D7
330
1E
100
AcDbEntity
  8
1
  6
Continuous
 62
     7
100
AcDbLine
 10
157.342079
 20
106.198161
 30
0.0
 11
159.422079
 21
106.198161
 31
0.0
  0
ARC
  5
D8
330
1E
100
AcDbEntity
  8
1
  6
Continuous
 62
     7
100
AcDbCircle
 10
157.342079
 20
106.458161
 30
0.0
 40
0.26
100
AcDbArc
 50
90.0
 51
270.0
  0
ARC
  5
D9
330
1E
100
AcDbEntity
  8
1
  6
Continuous
 62
     7
100
AcDbCircle
 10
157.342079
 20
106.458161
 30
0.0
 40
0.26
100
AcDbArc
 50
90.0
 51
270.0
  0
LINE
  5
DA
330
1E
100
AcDbEntity
  8
1
  6
Continuous
 62
     7
100
AcDbLine
 10
157.342079
 20
106.198161
 30
0.0
 11
159.422079
 21
106.198161
 31
0.0
  0
LINE
  5
DB
330
1E
100
AcDbEntity
  8
1
  6
Continuous
 62
     7
100
AcDbLine
 10
157.342079
 20
106.718161
 30
0.0
 11
159.422079
 21
106.718161
 31
0.0
  0
ARC
  5
DC
330
1E
100
AcDbEntity
  8
1
  6
Continuous
 62
     7
100
AcDbCircle
 10
159.422079
 20
106.458161
 30
0.0
 40
0.26
100
AcDbArc
 50
270.0
 51
90.0
  0
ARC
  5
DD
330
1E
100
AcDbEntity
  8
1
  6
Continuous
 62
     7
100
AcDbCircle
 10
159.422079
 20
106.458161
 30
0.0
 40
0.26
100
AcDbArc
 50
270.0
 51
90.0
  0
LINE
  5
DE
330
1E
100
AcDbEntity
  8
1
  6
Continuous
 62
     7
100
AcDbLine
 10
157.342079
 20
106.718161
 30
0.0
 11
159.422079
 21
106.718161
 31
0.0
  0
LINE
  5
DF
330
1E
100
AcDbEntity
  8
1
  6
Continuous
 62
     7
100
AcDbLine
 10
159.2920789999999
 20
104.7681609999999
 30
0.0
 11
161.372079
 21
104.7681609999999
 31
0.0
  0
LINE
  5
E0
330
1E
100
AcDbEntity
  8
1
  6
Continuous
 62
     7
100
AcDbLine
 10
159.2920789999999
 20
104.7681609999999
 30
0.0
 11
161.372079
 21
104.7681609999999
 31
0.0
  0
LINE
  5
E1
330
1E
100
AcDbEntity
  8
1
  6
Continuous
 62
     7
100
AcDbLine
 10
159.2920789999999
 20
104.7681609999999
 30
0.0
 11
161.372079
 21
104.7681609999999
 31
0.0
  0
LINE
  5
E2
330
1E
100
AcDbEntity
  8
1
  6
Continuous
 62
     7
100
AcDbLine
 10
159.2920789999999
 20
104.7681609999999
 30
0.0
 11
161.372079
 21
104.7681609999999
 31
0.0
  0
LINE
  5
E3
330
1E
100
AcDbEntity
  8
1
  6
Continuous
 62
     7
100
AcDbLine
 10
159.2920789999999
 20
112.5681609999999
 30
0.0
 11
161.372079
 21
112.5681609999999
 31
0.0
  0
LINE
  5
E4
330
1E
100
AcDbEntity
  8
1
  6
Continuous
 62
     7
100
AcDbLine
 10
159.2920789999999
 20
112.5681609999999
 30
0.0
 11
161.372079
 21
112.5681609999999
 31
0.0
  0
LINE
  5
E5
330
1E
100
AcDbEntity
  8
1
  6
Continuous
 62
     7
100
AcDbLine
 10
159.2920789999999
 20
112.5681609999999
 30
0.0
 11
161.372079
 21
112.5681609999999
 31
0.0
  0
LINE
  5
E6
330
1E
100
AcDbEntity
  8
1
  6
Continuous
 62
     7
100
AcDbLine
 10
159.2920789999999
 20
112.5681609999999
 30
0.0
 11
161.372079
 21
112.5681609999999
 31
0.0
  0
LINE
  5
E7
330
1E
100
AcDbEntity
  8
1
  6
Continuous
 62
     7
100
AcDbLine
 10
157.342079
 20
106.198161
 30
0.0
 11
159.422079
 21
106.198161
 31
0.0
  0
ARC
  5
E8
330
1E
100
AcDbEntity
  8
1
  6
Continuous
 62
     7
100
AcDbCircle
 10
157.342079
 20
106.458161
 30
0.0
 40
0.26
100
AcDbArc
 50
90.0
 51
270.0
  0
ARC
  5
E9
330
1E
100
AcDbEntity
  8
1
  6
Continuous
 62
     7
100
AcDbCircle
 10
157.342079
 20
106.458161
 30
0.0
 40
0.26
100
AcDbArc
 50
90.0
 51
270.0
  0
LINE
  5
EA
330
1E
100
AcDbEntity
  8
1
  6
Continuous
 62
     7
100
AcDbLine
 10
157.342079
 20
106.198161
 30
0.0
 11
159.422079
 21
106.198161
 31
0.0
  0
LINE
  5
EB
330
1E
100
AcDbEntity
  8
1
  6
Continuous
 62
     7
100
AcDbLine
 10
157.342079
 20
106.718161
 30
0.0
 11
159.422079
 21
106.718161
 31
0.0
  0
ARC
  5
EC
330
1E
100
AcDbEntity
  8
1
  6
Continuous
 62
     7
100
AcDbCircle
 10
159.422079
 20
106.458161
 30
0.0
 40
0.26
100
AcDbArc
 50
270.0
 51
90.0
  0
LINE
  5
ED
330
1E
100
AcDbEntity
  8
1
  6
Continuous
 62
     7
100
AcDbLine
 10
159.2920789999999
 20
108.148161
 30
0.0
 11
161.372079
 21
108.148161
 31
0.0
  0
LINE
  5
EE
330
1E
100
AcDbEntity
  8
1
  6
Continuous
 62
     7
100
AcDbLine
 10
159.2920789999999
 20
108.148161
 30
0.0
 11
161.372079
 21
108.148161
 31
0.0
  0
LINE
  5
EF
330
1E
100
AcDbEntity
  8
1
  6
Continuous
 62
     7
100
AcDbLine
 10
159.2920789999999
 20
108.148161
 30
0.0
 11
161.372079
 21
108.148161
 31
0.0
  0
LINE
  5
F0
330
1E
100
AcDbEntity
  8
1
  6
Continuous
 62
     7
100
AcDbLine
 10
159.2920789999999
 20
108.148161
 30
0.0
 11
161.372079
 21
108.148161
 31
0.0
  0
ARC
  5
F1
330
1E
100
AcDbEntity
  8
1
  6
Continuous
 62
     7
100
AcDbCircle
 10
161.372079
 20
108.408161
 30
0.0
 40
0.26
100
AcDbArc
 50
270.0
 51
90.0
  0
ARC
  5
F2
330
1E
100
AcDbEntity
  8
1
  6
Continuous
 62
     7
100
AcDbCircle
 10
159.2920789999999
 20
108.408161
 30
0.0
 40
0.26
100
AcDbArc
 50
90.0
 51
270.0
  0
ARC
  5
F3
330
1E
100
AcDbEntity
  8
1
  6
Continuous
 62
     7
100
AcDbCircle
 10
159.2920789999999
 20
108.408161
 30
0.0
 40
0.26
100
AcDbArc
 50
90.0
 51
270.0
  0
ARC
  5
F4
330
1E
100
AcDbEntity
  8
1
  6
Continuous
 62
     7
100
AcDbCircle
 10
161.372079
 20
108.408161
 30
0.0
 40
0.26
100
AcDbArc
 50
270.0
 51
90.0
  0
ARC
  5
F5
330
1E
100
AcDbEntity
  8
1
  6
Continuous
 62
     7
100
AcDbCircle
 10
161.372079
 20
108.408161
 30
0.0
 40
0.26
100
AcDbArc
 50
270.0
 51
90.0
  0
ARC
  5
F6
330
1E
100
AcDbEntity
  8
1
  6
Continuous
 62
     7
100
AcDbCircle
 10
159.2920789999999
 20
108.408161
 30
0.0
 40
0.26
100
AcDbArc
 50
90.0
 51
270.0
  0
ARC
  5
F7
330
1E
100
AcDbEntity
  8
1
  6
Continuous
 62
     7
100
AcDbCircle
 10
159.2920789999999
 20
108.408161
 30
0.0
 40
0.26
100
AcDbArc
 50
90.0
 51
270.0
  0
ARC
  5
F8
330
1E
100
AcDbEntity
  8
1
  6
Continuous
 62
     7
100
AcDbCircle
 10
161.372079
 20
108.408161
 30
0.0
 40
0.26
100
AcDbArc
 50
270.0
 51
90.0
  0
LINE
  5
F9
330
1E
100
AcDbEntity
  8
1
  6
Continuous
 62
     7
100
AcDbLine
 10
159.2920789999999
 20
108.668161
 30
0.0
 11
161.372079
 21
108.668161
 31
0.0
  0
LINE
  5
FA
330
1E
100
AcDbEntity
  8
1
  6
Continuous
 62
     7
100
AcDbLine
 10
159.2920789999999
 20
108.668161
 30
0.0
 11
161.372079
 21
108.668161
 31
0.0
  0
LINE
  5
FB
330
1E
100
AcDbEntity
  8
1
  6
Continuous
 62
     7
100
AcDbLine
 10
159.2920789999999
 20
108.668161
 30
0.0
 11
161.372079
 21
108.668161
 31
0.0
  0
ARC
  5
FC
330
1E
100
AcDbEntity
  8
1
  6
Continuous
 62
     7
100
AcDbCircle
 10
161.372079
 20
112.308161
 30
0.0
 40
0.26
100
AcDbArc
 50
270.0
 51
90.0
  0
ARC
  5
FD
330
1E
100
AcDbEntity
  8
1
  6
Continuous
 62
     7
100
AcDbCircle
 10
161.372079
 20
112.308161
 30
0.0
 40
0.26
100
AcDbArc
 50
270.0
 51
90.0
  0
ARC
  5
FE
330
1E
100
AcDbEntity
  8
1
  6
Continuous
 62
     7
100
AcDbCircle
 10
159.2920789999999
 20
112.308161
 30
0.0
 40
0.26
100
AcDbArc
 50
90.0
 51
270.0
  0
ARC
  5
FF
330
1E
100
AcDbEntity
  8
1
  6
Continuous
 62
     7
100
AcDbCircle
 10
159.2920789999999
 20
112.308161
 30
0.0
 40
0.26
100
AcDbArc
 50
90.0
 51
270.0
  0
ARC
  5
100
330
1E
100
AcDbEntity
  8
1
  6
Continuous
 62
     7
100
AcDbCircle
 10
161.372079
 20
112.308161
 30
0.0
 40
0.26
100
AcDbArc
 50
270.0
 51
90.0
  0
LINE
  5
101
330
1E
100
AcDbEntity
  8
1
  6
Continuous
 62
     7
100
AcDbLine
 10
159.2920789999999
 20
112.048161
 30
0.0
 11
161.372079
 21
112.048161
 31
0.0
  0
LINE
  5
102
330
1E
100
AcDbEntity
  8
1
  6
Continuous
 62
     7
100
AcDbLine
 10
159.2920789999999
 20
112.048161
 30
0.0
 11
161.372079
 21
112.048161
 31
0.0
  0
LINE
  5
103
330
1E
100
AcDbEntity
  8
1
  6
Continuous
 62
     7
100
AcDbLine
 10
159.2920789999999
 20
112.048161
 30
0.0
 11
161.372079
 21
112.048161
 31
0.0
  0
LINE
  5
104
330
1E
100
AcDbEntity
  8
1
  6
Continuous
 62
     7
100
AcDbLine
 10
159.2920789999999
 20
112.048161
 30
0.0
 11
161.372079
 21
112.048161
 31
0.0
  0
ARC
  5
105
330
1E
100
AcDbEntity
  8
1
  6
Continuous
 62
     7
100
AcDbCircle
 10
159.422079
 20
110.358161
 30
0.0
 40
0.26
100
AcDbArc
 50
270.0
 51
90.0
  0
LINE
  5
106
330
1E
100
AcDbEntity
  8
1
  6
Continuous
 62
     7
100
AcDbLine
 10
157.342079
 20
110.618161
 30
0.0
 11
159.422079
 21
110.618161
 31
0.0
  0
LINE
  5
107
330
1E
100
AcDbEntity
  8
1
  6
Continuous
 62
     7
100
AcDbLine
 10
157.342079
 20
110.098161
 30
0.0
 11
159.422079
 21
110.098161
 31
0.0
  0
ARC
  5
108
330
1E
100
AcDbEntity
  8
1
  6
Continuous
 62
     7
100
AcDbCircle
 10
157.342079
 20
110.358161
 30
0.0
 40
0.26
100
AcDbArc
 50
90.0
 51
270.0
  0
ARC
  5
109
330
1E
100
AcDbEntity
  8
1
  6
Continuous
 62
     7
100
AcDbCircle
 10
157.342079
 20
110.358161
 30
0.0
 40
0.26
100
AcDbArc
 50
90.0
 51
270.0
  0
LINE
  5
10A
330
1E
100
AcDbEntity
  8
1
  6
Continuous
 62
     7
100
AcDbLine
 10
157.342079
 20
110.098161
 30
0.0
 11
159.422079
 21
110.098161
 31
0.0
  0
LINE
  5
10B
330
1E
100
AcDbEntity
  8
1
  6
Continuous
 62
     7
100
AcDbLine
 10
157.342079
 20
110.618161
 30
0.0
 11
159.422079
 21
110.618161
 31
0.0
  0
ARC
  5
10C
330
1E
100
AcDbEntity
  8
1
  6
Continuous
 62
     7
100
AcDbCircle
 10
159.422079
 20
110.358161
 30
0.0
 40
0.26
100
AcDbArc
 50
270.0
 51
90.0
  0
ARC
  5
10D
330
1E
100
AcDbEntity
  8
1
  6
Continuous
 62
     7
100
AcDbCircle
 10
159.422079
 20
110.358161
 30
0.0
 40
0.26
100
AcDbArc
 50
270.0
 51
90.0
  0
LINE
  5
10E
330
1E
100
AcDbEntity
  8
1
  6
Continuous
 62
     7
100
AcDbLine
 10
157.342079
 20
110.618161
 30
0.0
 11
159.422079
 21
110.618161
 31
0.0
  0
LINE
  5
10F
330
1E
100
AcDbEntity
  8
1
  6
Continuous
 62
     7
100
AcDbLine
 10
157.342079
 20
110.098161
 30
0.0
 11
159.422079
 21
110.098161
 31
0.0
  0
ARC
  5
110
330
1E
100
AcDbEntity
  8
1
  6
Continuous
 62
     7
100
AcDbCircle
 10
157.342079
 20
110.358161
 30
0.0
 40
0.26
100
AcDbArc
 50
90.0
 51
270.0
  0
ARC
  5
111
330
1E
100
AcDbEntity
  8
1
  6
Continuous
 62
     7
100
AcDbCircle
 10
157.342079
 20
110.358161
 30
0.0
 40
0.26
100
AcDbArc
 50
90.0
 51
270.0
  0
LINE
  5
112
330
1E
100
AcDbEntity
  8
1
  6
Continuous
 62
     7
100
AcDbLine
 10
157.342079
 20
110.098161
 30
0.0
 11
159.422079
 21
110.098161
 31
0.0
  0
LINE
  5
113
330
1E
100
AcDbEntity
  8
1
  6
Continuous
 62
     7
100
AcDbLine
 10
157.342079
 20
110.618161
 30
0.0
 11
159.422079
 21
110.618161
 31
0.0
  0
ARC
  5
114
330
1E
100
AcDbEntity
  8
1
  6
Continuous
 62
     7
100
AcDbCircle
 10
159.422079
 20
110.358161
 30
0.0
 40
0.26
100
AcDbArc
 50
270.0
 51
90.0
  0
ARC
  5
115
330
1E
100
AcDbEntity
  8
1
  6
Continuous
 62
     7
100
AcDbCircle
 10
161.372079
 20
116.2081609999999
 30
0.0
 40
0.26
100
AcDbArc
 50
270.0
 51
90.0
  0
ARC
  5
116
330
1E
100
AcDbEntity
  8
1
  6
Continuous
 62
     7
100
AcDbCircle
 10
159.2920789999999
 20
116.2081609999999
 30
0.0
 40
0.26
100
AcDbArc
 50
90.0
 51
270.0
  0
ARC
  5
117
330
1E
100
AcDbEntity
  8
1
  6
Continuous
 62
     7
100
AcDbCircle
 10
159.2920789999999
 20
116.2081609999999
 30
0.0
 40
0.26
100
AcDbArc
 50
90.0
 51
270.0
  0
ARC
  5
118
330
1E
100
AcDbEntity
  8
1
  6
Continuous
 62
     7
100
AcDbCircle
 10
161.372079
 20
116.2081609999999
 30
0.0
 40
0.26
100
AcDbArc
 50
270.0
 51
90.0
  0
ARC
  5
119
330
1E
100
AcDbEntity
  8
1
  6
Continuous
 62
     7
100
AcDbCircle
 10
161.372079
 20
116.2081609999999
 30
0.0
 40
0.26
100
AcDbArc
 50
270.0
 51
90.0
  0
ARC
  5
11A
330
1E
100
AcDbEntity
  8
1
  6
Continuous
 62
     7
100
AcDbCircle
 10
159.2920789999999
 20
116.2081609999999
 30
0.0
 40
0.26
100
AcDbArc
 50
90.0
 51
270.0
  0
ARC
  5
11B
330
1E
100
AcDbEntity
  8
1
  6
Continuous
 62
     7
100
AcDbCircle
 10
159.2920789999999
 20
116.2081609999999
 30
0.0
 40
0.26
100
AcDbArc
 50
90.0
 51
270.0
  0
ARC
  5
11C
330
1E
100
AcDbEntity
  8
1
  6
Continuous
 62
     7
100
AcDbCircle
 10
161.372079
 20
116.2081609999999
 30
0.0
 40
0.26
100
AcDbArc
 50
270.0
 51
90.0
  0
LINE
  5
11D
330
1E
100
AcDbEntity
  8
1
  6
Continuous
 62
     7
100
AcDbLine
 10
159.2920789999999
 20
116.468161
 30
0.0
 11
161.372079
 21
116.468161
 31
0.0
  0
LINE
  5
11E
330
1E
100
AcDbEntity
  8
1
  6
Continuous
 62
     7
100
AcDbLine
 10
159.2920789999999
 20
116.468161
 30
0.0
 11
161.372079
 21
116.468161
 31
0.0
  0
LINE
  5
11F
330
1E
100
AcDbEntity
  8
1
  6
Continuous
 62
     7
100
AcDbLine
 10
159.2920789999999
 20
116.468161
 30
0.0
 11
161.372079
 21
116.468161
 31
0.0
  0
LINE
  5
120
330
1E
100
AcDbEntity
  8
1
  6
Continuous
 62
     7
100
AcDbLine
 10
159.2920789999999
 20
116.468161
 30
0.0
 11
161.372079
 21
116.468161
 31
0.0
  0
ARC
  5
121
330
1E
100
AcDbEntity
  8
1
  6
Continuous
 62
     7
100
AcDbCircle
 10
159.422079
 20
114.258161
 30
0.0
 40
0.26
100
AcDbArc
 50
270.0
 51
90.0
  0
LINE
  5
122
330
1E
100
AcDbEntity
  8
1
  6
Continuous
 62
     7
100
AcDbLine
 10
157.342079
 20
114.518161
 30
0.0
 11
159.422079
 21
114.518161
 31
0.0
  0
LINE
  5
123
330
1E
100
AcDbEntity
  8
1
  6
Continuous
 62
     7
100
AcDbLine
 10
157.342079
 20
113.998161
 30
0.0
 11
159.422079
 21
113.998161
 31
0.0
  0
ARC
  5
124
330
1E
100
AcDbEntity
  8
1
  6
Continuous
 62
     7
100
AcDbCircle
 10
157.342079
 20
114.258161
 30
0.0
 40
0.26
100
AcDbArc
 50
90.0
 51
270.0
  0
ARC
  5
125
330
1E
100
AcDbEntity
  8
1
  6
Continuous
 62
     7
100
AcDbCircle
 10
157.342079
 20
114.258161
 30
0.0
 40
0.26
100
AcDbArc
 50
90.0
 51
270.0
  0
LINE
  5
126
330
1E
100
AcDbEntity
  8
1
  6
Continuous
 62
     7
100
AcDbLine
 10
157.342079
 20
113.998161
 30
0.0
 11
159.422079
 21
113.998161
 31
0.0
  0
LINE
  5
127
330
1E
100
AcDbEntity
  8
1
  6
Continuous
 62
     7
100
AcDbLine
 10
157.342079
 20
114.518161
 30
0.0
 11
159.422079
 21
114.518161
 31
0.0
  0
ARC
  5
128
330
1E
100
AcDbEntity
  8
1
  6
Continuous
 62
     7
100
AcDbCircle
 10
159.422079
 20
114.258161
 30
0.0
 40
0.26
100
AcDbArc
 50
270.0
 51
90.0
  0
ARC
  5
129
330
1E
100
AcDbEntity
  8
1
  6
Continuous
 62
     7
100
AcDbCircle
 10
159.422079
 20
114.258161
 30
0.0
 40
0.26
100
AcDbArc
 50
270.0
 51
90.0
  0
LINE
  5
12A
330
1E
100
AcDbEntity
  8
1
  6
Continuous
 62
     7
100
AcDbLine
 10
157.342079
 20
114.518161
 30
0.0
 11
159.422079
 21
114.518161
 31
0.0
  0
ARC
  5
12B
330
1E
100
AcDbEntity
  8
1
  6
Continuous
 62
     7
100
AcDbCircle
 10
161.372079
 20
112.308161
 30
0.0
 40
0.26
100
AcDbArc
 50
270.0
 51
90.0
  0
ARC
  5
12C
330
1E
100
AcDbEntity
  8
1
  6
Continuous
 62
     7
100
AcDbCircle
 10
159.2920789999999
 20
112.308161
 30
0.0
 40
0.26
100
AcDbArc
 50
90.0
 51
270.0
  0
ARC
  5
12D
330
1E
100
AcDbEntity
  8
1
  6
Continuous
 62
     7
100
AcDbCircle
 10
159.2920789999999
 20
112.308161
 30
0.0
 40
0.26
100
AcDbArc
 50
90.0
 51
270.0
  0
LINE
  5
12E
330
1E
100
AcDbEntity
  8
1
  6
Continuous
 62
     7
100
AcDbLine
 10
157.342079
 20
117.898161
 30
0.0
 11
159.422079
 21
117.898161
 31
0.0
  0
LINE
  5
12F
330
1E
100
AcDbEntity
  8
1
  6
Continuous
 62
     7
100
AcDbLine
 10
157.342079
 20
118.418161
 30
0.0
 11
159.422079
 21
118.418161
 31
0.0
  0
ARC
  5
130
330
1E
100
AcDbEntity
  8
1
  6
Continuous
 62
     7
100
AcDbCircle
 10
159.422079
 20
118.158161
 30
0.0
 40
0.26
100
AcDbArc
 50
270.0
 51
90.0
  0
ARC
  5
131
330
1E
100
AcDbEntity
  8
1
  6
Continuous
 62
     7
100
AcDbCircle
 10
159.422079
 20
118.158161
 30
0.0
 40
0.26
100
AcDbArc
 50
270.0
 51
90.0
  0
LINE
  5
132
330
1E
100
AcDbEntity
  8
1
  6
Continuous
 62
     7
100
AcDbLine
 10
157.342079
 20
118.418161
 30
0.0
 11
159.422079
 21
118.418161
 31
0.0
  0
LINE
  5
133
330
1E
100
AcDbEntity
  8
1
  6
Continuous
 62
     7
100
AcDbLine
 10
157.342079
 20
117.898161
 30
0.0
 11
159.422079
 21
117.898161
 31
0.0
  0
ARC
  5
134
330
1E
100
AcDbEntity
  8
1
  6
Continuous
 62
     7
100
AcDbCircle
 10
157.342079
 20
118.158161
 30
0.0
 40
0.26
100
AcDbArc
 50
90.0
 51
270.0
  0
ARC
  5
135
330
1E
100
AcDbEntity
  8
1
  6
Continuous
 62
     7
100
AcDbCircle
 10
157.342079
 20
118.158161
 30
0.0
 40
0.26
100
AcDbArc
 50
90.0
 51
270.0
  0
LINE
  5
136
330
1E
100
AcDbEntity
  8
1
  6
Continuous
 62
     7
100
AcDbLine
 10
157.342079
 20
117.898161
 30
0.0
 11
159.422079
 21
117.898161
 31
0.0
  0
LINE
  5
137
330
1E
100
AcDbEntity
  8
1
  6
Continuous
 62
     7
100
AcDbLine
 10
157.342079
 20
118.418161
 30
0.0
 11
159.422079
 21
118.418161
 31
0.0
  0
ARC
  5
138
330
1E
100
AcDbEntity
  8
1
  6
Continuous
 62
     7
100
AcDbCircle
 10
159.422079
 20
118.158161
 30
0.0
 40
0.26
100
AcDbArc
 50
270.0
 51
90.0
  0
LINE
  5
139
330
1E
100
AcDbEntity
  8
1
  6
Continuous
 62
     7
100
AcDbLine
 10
159.2920789999999
 20
120.368161
 30
0.0
 11
161.372079
 21
120.368161
 31
0.0
  0
LINE
  5
13A
330
1E
100
AcDbEntity
  8
1
  6
Continuous
 62
     7
100
AcDbLine
 10
159.2920789999999
 20
120.368161
 30
0.0
 11
161.372079
 21
120.368161
 31
0.0
  0
LINE
  5
13B
330
1E
100
AcDbEntity
  8
1
  6
Continuous
 62
     7
100
AcDbLine
 10
159.2920789999999
 20
120.368161
 30
0.0
 11
161.372079
 21
120.368161
 31
0.0
  0
LINE
  5
13C
330
1E
100
AcDbEntity
  8
1
  6
Continuous
 62
     7
100
AcDbLine
 10
159.2920789999999
 20
120.368161
 30
0.0
 11
161.372079
 21
120.368161
 31
0.0
  0
LINE
  5
13D
330
1E
100
AcDbEntity
  8
1
  6
Continuous
 62
     7
100
AcDbLine
 10
157.342079
 20
113.998161
 30
0.0
 11
159.422079
 21
113.998161
 31
0.0
  0
ARC
  5
13E
330
1E
100
AcDbEntity
  8
1
  6
Continuous
 62
     7
100
AcDbCircle
 10
157.342079
 20
114.258161
 30
0.0
 40
0.26
100
AcDbArc
 50
90.0
 51
270.0
  0
ARC
  5
13F
330
1E
100
AcDbEntity
  8
1
  6
Continuous
 62
     7
100
AcDbCircle
 10
157.342079
 20
114.258161
 30
0.0
 40
0.26
100
AcDbArc
 50
90.0
 51
270.0
  0
LINE
  5
140
330
1E
100
AcDbEntity
  8
1
  6
Continuous
 62
     7
100
AcDbLine
 10
157.342079
 20
113.998161
 30
0.0
 11
159.422079
 21
113.998161
 31
0.0
  0
LINE
  5
141
330
1E
100
AcDbEntity
  8
1
  6
Continuous
 62
     7
100
AcDbLine
 10
157.342079
 20
114.518161
 30
0.0
 11
159.422079
 21
114.518161
 31
0.0
  0
ARC
  5
142
330
1E
100
AcDbEntity
  8
1
  6
Continuous
 62
     7
100
AcDbCircle
 10
159.422079
 20
114.258161
 30
0.0
 40
0.26
100
AcDbArc
 50
270.0
 51
90.0
  0
LINE
  5
143
330
1E
100
AcDbEntity
  8
1
  6
Continuous
 62
     7
100
AcDbLine
 10
159.2920789999999
 20
115.948161
 30
0.0
 11
161.372079
 21
115.948161
 31
0.0
  0
LINE
  5
144
330
1E
100
AcDbEntity
  8
1
  6
Continuous
 62
     7
100
AcDbLine
 10
159.2920789999999
 20
115.948161
 30
0.0
 11
161.372079
 21
115.948161
 31
0.0
  0
LINE
  5
145
330
1E
100
AcDbEntity
  8
1
  6
Continuous
 62
     7
100
AcDbLine
 10
159.2920789999999
 20
115.948161
 30
0.0
 11
161.372079
 21
115.948161
 31
0.0
  0
LINE
  5
146
330
1E
100
AcDbEntity
  8
1
  6
Continuous
 62
     7
100
AcDbLine
 10
159.2920789999999
 20
115.948161
 30
0.0
 11
161.372079
 21
115.948161
 31
0.0
  0
ARC
  5
147
330
1E
100
AcDbEntity
  8
1
  6
Continuous
 62
     7
100
AcDbCircle
 10
161.372079
 20
124.008161
 30
0.0
 40
0.26
100
AcDbArc
 50
270.0
 51
90.0
  0
ARC
  5
148
330
1E
100
AcDbEntity
  8
1
  6
Continuous
 62
     7
100
AcDbCircle
 10
159.2920789999999
 20
124.008161
 30
0.0
 40
0.26
100
AcDbArc
 50
90.0
 51
270.0
  0
ARC
  5
149
330
1E
100
AcDbEntity
  8
1
  6
Continuous
 62
     7
100
AcDbCircle
 10
159.2920789999999
 20
124.008161
 30
0.0
 40
0.26
100
AcDbArc
 50
90.0
 51
270.0
  0
ARC
  5
14A
330
1E
100
AcDbEntity
  8
1
  6
Continuous
 62
     7
100
AcDbCircle
 10
161.372079
 20
124.008161
 30
0.0
 40
0.26
100
AcDbArc
 50
270.0
 51
90.0
  0
LINE
  5
14B
330
1E
100
AcDbEntity
  8
1
  6
Continuous
 62
     7
100
AcDbLine
 10
159.2920789999999
 20
124.2681609999999
 30
0.0
 11
161.372079
 21
124.2681609999999
 31
0.0
  0
LINE
  5
14C
330
1E
100
AcDbEntity
  8
1
  6
Continuous
 62
     7
100
AcDbLine
 10
159.2920789999999
 20
124.2681609999999
 30
0.0
 11
161.372079
 21
124.2681609999999
 31
0.0
  0
LINE
  5
14D
330
1E
100
AcDbEntity
  8
1
  6
Continuous
 62
     7
100
AcDbLine
 10
159.2920789999999
 20
124.2681609999999
 30
0.0
 11
161.372079
 21
124.2681609999999
 31
0.0
  0
LINE
  5
14E
330
1E
100
AcDbEntity
  8
1
  6
Continuous
 62
     7
100
AcDbLine
 10
159.2920789999999
 20
124.2681609999999
 30
0.0
 11
161.372079
 21
124.2681609999999
 31
0.0
  0
ARC
  5
14F
330
1E
100
AcDbEntity
  8
1
  6
Continuous
 62
     7
100
AcDbCircle
 10
161.372079
 20
120.108161
 30
0.0
 40
0.26
100
AcDbArc
 50
270.0
 51
90.0
  0
ARC
  5
150
330
1E
100
AcDbEntity
  8
1
  6
Continuous
 62
     7
100
AcDbCircle
 10
159.2920789999999
 20
120.108161
 30
0.0
 40
0.26
100
AcDbArc
 50
90.0
 51
270.0
  0
ARC
  5
151
330
1E
100
AcDbEntity
  8
1
  6
Continuous
 62
     7
100
AcDbCircle
 10
159.2920789999999
 20
120.108161
 30
0.0
 40
0.26
100
AcDbArc
 50
90.0
 51
270.0
  0
ARC
  5
152
330
1E
100
AcDbEntity
  8
1
  6
Continuous
 62
     7
100
AcDbCircle
 10
161.372079
 20
120.108161
 30
0.0
 40
0.26
100
AcDbArc
 50
270.0
 51
90.0
  0
ARC
  5
153
330
1E
100
AcDbEntity
  8
1
  6
Continuous
 62
     7
100
AcDbCircle
 10
161.372079
 20
120.108161
 30
0.0
 40
0.26
100
AcDbArc
 50
270.0
 51
90.0
  0
ARC
  5
154
330
1E
100
AcDbEntity
  8
1
  6
Continuous
 62
     7
100
AcDbCircle
 10
159.2920789999999
 20
120.108161
 30
0.0
 40
0.26
100
AcDbArc
 50
90.0
 51
270.0
  0
ARC
  5
155
330
1E
100
AcDbEntity
  8
1
  6
Continuous
 62
     7
100
AcDbCircle
 10
159.2920789999999
 20
120.108161
 30
0.0
 40
0.26
100
AcDbArc
 50
90.0
 51
270.0
  0
ARC
  5
156
330
1E
100
AcDbEntity
  8
1
  6
Continuous
 62
     7
100
AcDbCircle
 10
161.372079
 20
120.108161
 30
0.0
 40
0.26
100
AcDbArc
 50
270.0
 51
90.0
  0
LINE
  5
157
330
1E
100
AcDbEntity
  8
1
  6
Continuous
 62
     7
100
AcDbLine
 10
159.2920789999999
 20
119.8481609999999
 30
0.0
 11
161.372079
 21
119.8481609999999
 31
0.0
  0
LINE
  5
158
330
1E
100
AcDbEntity
  8
1
  6
Continuous
 62
     7
100
AcDbLine
 10
159.2920789999999
 20
119.8481609999999
 30
0.0
 11
161.372079
 21
119.8481609999999
 31
0.0
  0
LINE
  5
159
330
1E
100
AcDbEntity
  8
1
  6
Continuous
 62
     7
100
AcDbLine
 10
159.2920789999999
 20
119.8481609999999
 30
0.0
 11
161.372079
 21
119.8481609999999
 31
0.0
  0
LINE
  5
15A
330
1E
100
AcDbEntity
  8
1
  6
Continuous
 62
     7
100
AcDbLine
 10
159.2920789999999
 20
119.8481609999999
 30
0.0
 11
161.372079
 21
119.8481609999999
 31
0.0
  0
ARC
  5
15B
330
1E
100
AcDbEntity
  8
1
  6
Continuous
 62
     7
100
AcDbCircle
 10
159.422079
 20
118.158161
 30
0.0
 40
0.26
100
AcDbArc
 50
270.0
 51
90.0
  0
LINE
  5
15C
330
1E
100
AcDbEntity
  8
1
  6
Continuous
 62
     7
100
AcDbLine
 10
157.342079
 20
118.418161
 30
0.0
 11
159.422079
 21
118.418161
 31
0.0
  0
LINE
  5
15D
330
1E
100
AcDbEntity
  8
1
  6
Continuous
 62
     7
100
AcDbLine
 10
157.342079
 20
117.898161
 30
0.0
 11
159.422079
 21
117.898161
 31
0.0
  0
ARC
  5
15E
330
1E
100
AcDbEntity
  8
1
  6
Continuous
 62
     7
100
AcDbCircle
 10
157.342079
 20
118.158161
 30
0.0
 40
0.26
100
AcDbArc
 50
90.0
 51
270.0
  0
ARC
  5
15F
330
1E
100
AcDbEntity
  8
1
  6
Continuous
 62
     7
100
AcDbCircle
 10
157.342079
 20
118.158161
 30
0.0
 40
0.26
100
AcDbArc
 50
90.0
 51
270.0
  0
LINE
  5
160
330
1E
100
AcDbEntity
  8
1
  6
Continuous
 62
     7
100
AcDbLine
 10
157.342079
 20
125.698161
 30
0.0
 11
159.422079
 21
125.698161
 31
0.0
  0
LINE
  5
161
330
1E
100
AcDbEntity
  8
1
  6
Continuous
 62
     7
100
AcDbLine
 10
157.342079
 20
121.798161
 30
0.0
 11
159.422079
 21
121.798161
 31
0.0
  0
ARC
  5
162
330
1E
100
AcDbEntity
  8
1
  6
Continuous
 62
     7
100
AcDbCircle
 10
157.342079
 20
122.058161
 30
0.0
 40
0.26
100
AcDbArc
 50
90.0
 51
270.0
  0
ARC
  5
163
330
1E
100
AcDbEntity
  8
1
  6
Continuous
 62
     7
100
AcDbCircle
 10
157.342079
 20
122.058161
 30
0.0
 40
0.26
100
AcDbArc
 50
90.0
 51
270.0
  0
LINE
  5
164
330
1E
100
AcDbEntity
  8
1
  6
Continuous
 62
     7
100
AcDbLine
 10
157.342079
 20
121.798161
 30
0.0
 11
159.422079
 21
121.798161
 31
0.0
  0
LINE
  5
165
330
1E
100
AcDbEntity
  8
1
  6
Continuous
 62
     7
100
AcDbLine
 10
157.342079
 20
122.318161
 30
0.0
 11
159.422079
 21
122.318161
 31
0.0
  0
ARC
  5
166
330
1E
100
AcDbEntity
  8
1
  6
Continuous
 62
     7
100
AcDbCircle
 10
159.422079
 20
122.058161
 30
0.0
 40
0.26
100
AcDbArc
 50
270.0
 51
90.0
  0
ARC
  5
167
330
1E
100
AcDbEntity
  8
1
  6
Continuous
 62
     7
100
AcDbCircle
 10
159.422079
 20
122.058161
 30
0.0
 40
0.26
100
AcDbArc
 50
270.0
 51
90.0
  0
LINE
  5
168
330
1E
100
AcDbEntity
  8
1
  6
Continuous
 62
     7
100
AcDbLine
 10
157.342079
 20
122.318161
 30
0.0
 11
159.422079
 21
122.318161
 31
0.0
  0
LINE
  5
169
330
1E
100
AcDbEntity
  8
1
  6
Continuous
 62
     7
100
AcDbLine
 10
157.342079
 20
121.798161
 30
0.0
 11
159.422079
 21
121.798161
 31
0.0
  0
ARC
  5
16A
330
1E
100
AcDbEntity
  8
1
  6
Continuous
 62
     7
100
AcDbCircle
 10
157.342079
 20
122.058161
 30
0.0
 40
0.26
100
AcDbArc
 50
90.0
 51
270.0
  0
ARC
  5
16B
330
1E
100
AcDbEntity
  8
1
  6
Continuous
 62
     7
100
AcDbCircle
 10
157.342079
 20
122.058161
 30
0.0
 40
0.26
100
AcDbArc
 50
90.0
 51
270.0
  0
LINE
  5
16C
330
1E
100
AcDbEntity
  8
1
  6
Continuous
 62
     7
100
AcDbLine
 10
157.342079
 20
121.798161
 30
0.0
 11
159.422079
 21
121.798161
 31
0.0
  0
LINE
  5
16D
330
1E
100
AcDbEntity
  8
1
  6
Continuous
 62
     7
100
AcDbLine
 10
157.342079
 20
122.318161
 30
0.0
 11
159.422079
 21
122.318161
 31
0.0
  0
ARC
  5
16E
330
1E
100
AcDbEntity
  8
1
  6
Continuous
 62
     7
100
AcDbCircle
 10
159.422079
 20
122.058161
 30
0.0
 40
0.26
100
AcDbArc
 50
270.0
 51
90.0
  0
ARC
  5
16F
330
1E
100
AcDbEntity
  8
1
  6
Continuous
 62
     7
100
AcDbCircle
 10
159.422079
 20
122.058161
 30
0.0
 40
0.26
100
AcDbArc
 50
270.0
 51
90.0
  0
LINE
  5
170
330
1E
100
AcDbEntity
  8
1
  6
Continuous
 62
     7
100
AcDbLine
 10
157.342079
 20
122.318161
 30
0.0
 11
159.422079
 21
122.318161
 31
0.0
  0
LINE
  5
171
330
1E
100
AcDbEntity
  8
1
  6
Continuous
 62
     7
100
AcDbLine
 10
159.2920789999999
 20
123.748161
 30
0.0
 11
161.372079
 21
123.748161
 31
0.0
  0
LINE
  5
172
330
1E
100
AcDbEntity
  8
1
  6
Continuous
 62
     7
100
AcDbLine
 10
159.2920789999999
 20
123.748161
 30
0.0
 11
161.372079
 21
123.748161
 31
0.0
  0
LINE
  5
173
330
1E
100
AcDbEntity
  8
1
  6
Continuous
 62
     7
100
AcDbLine
 10
159.2920789999999
 20
123.748161
 30
0.0
 11
161.372079
 21
123.748161
 31
0.0
  0
LINE
  5
174
330
1E
100
AcDbEntity
  8
1
  6
Continuous
 62
     7
100
AcDbLine
 10
159.2920789999999
 20
123.748161
 30
0.0
 11
161.372079
 21
123.748161
 31
0.0
  0
ARC
  5
175
330
1E
100
AcDbEntity
  8
1
  6
Continuous
 62
     7
100
AcDbCircle
 10
161.372079
 20
124.008161
 30
0.0
 40
0.26
100
AcDbArc
 50
270.0
 51
90.0
  0
ARC
  5
176
330
1E
100
AcDbEntity
  8
1
  6
Continuous
 62
     7
100
AcDbCircle
 10
159.2920789999999
 20
124.008161
 30
0.0
 40
0.26
100
AcDbArc
 50
90.0
 51
270.0
  0
ARC
  5
177
330
1E
100
AcDbEntity
  8
1
  6
Continuous
 62
     7
100
AcDbCircle
 10
159.2920789999999
 20
124.008161
 30
0.0
 40
0.26
100
AcDbArc
 50
90.0
 51
270.0
  0
ARC
  5
178
330
1E
100
AcDbEntity
  8
1
  6
Continuous
 62
     7
100
AcDbCircle
 10
161.372079
 20
124.008161
 30
0.0
 40
0.26
100
AcDbArc
 50
270.0
 51
90.0
  0
LINE
  5
179
330
1E
100
AcDbEntity
  8
1
  6
Continuous
 62
     7
100
AcDbLine
 10
157.342079
 20
102.818161
 30
0.0
 11
159.422079
 21
102.818161
 31
0.0
  0
ARC
  5
17A
330
1E
100
AcDbEntity
  8
1
  6
Continuous
 62
     7
100
AcDbCircle
 10
159.422079
 20
102.5581609999999
 30
0.0
 40
0.26
100
AcDbArc
 50
270.0
 51
90.0
  0
ARC
  5
17B
330
1E
100
AcDbEntity
  8
1
  6
Continuous
 62
     7
100
AcDbCircle
 10
159.422079
 20
102.5581609999999
 30
0.0
 40
0.26
100
AcDbArc
 50
270.0
 51
90.0
  0
LINE
  5
17C
330
1E
100
AcDbEntity
  8
1
  6
Continuous
 62
     7
100
AcDbLine
 10
157.342079
 20
102.818161
 30
0.0
 11
159.422079
 21
102.818161
 31
0.0
  0
LINE
  5
17D
330
1E
100
AcDbEntity
  8
1
  6
Continuous
 62
     7
100
AcDbLine
 10
157.342079
 20
102.2981609999999
 30
0.0
 11
159.422079
 21
102.2981609999999
 31
0.0
  0
ARC
  5
17E
330
1E
100
AcDbEntity
  8
1
  6
Continuous
 62
     7
100
AcDbCircle
 10
157.342079
 20
102.5581609999999
 30
0.0
 40
0.26
100
AcDbArc
 50
90.0
 51
270.0
  0
ARC
  5
17F
330
1E
100
AcDbEntity
  8
1
  6
Continuous
 62
     7
100
AcDbCircle
 10
157.342079
 20
102.5581609999999
 30
0.0
 40
0.26
100
AcDbArc
 50
90.0
 51
270.0
  0
LINE
  5
180
330
1E
100
AcDbEntity
  8
1
  6
Continuous
 62
     7
100
AcDbLine
 10
157.342079
 20
102.2981609999999
 30
0.0
 11
159.422079
 21
102.2981609999999
 31
0.0
  0
LINE
  5
181
330
1E
100
AcDbEntity
  8
1
  6
Continuous
 62
     7
100
AcDbLine
 10
157.342079
 20
102.818161
 30
0.0
 11
159.422079
 21
102.818161
 31
0.0
  0
ARC
  5
182
330
1E
100
AcDbEntity
  8
1
  6
Continuous
 62
     7
100
AcDbCircle
 10
159.422079
 20
102.5581609999999
 30
0.0
 40
0.26
100
AcDbArc
 50
270.0
 51
90.0
  0
LINE
  5
183
330
1E
100
AcDbEntity
  8
1
  6
Continuous
 62
     7
100
AcDbLine
 10
157.342079
 20
126.218161
 30
0.0
 11
159.422079
 21
126.218161
 31
0.0
  0
ARC
  5
184
330
1E
100
AcDbEntity
  8
1
  6
Continuous
 62
     7
100
AcDbCircle
 10
159.422079
 20
125.958161
 30
0.0
 40
0.26
100
AcDbArc
 50
270.0
 51
90.0
  0
ARC
  5
185
330
1E
100
AcDbEntity
  8
1
  6
Continuous
 62
     7
100
AcDbCircle
 10
159.422079
 20
125.958161
 30
0.0
 40
0.26
100
AcDbArc
 50
270.0
 51
90.0
  0
LINE
  5
186
330
1E
100
AcDbEntity
  8
1
  6
Continuous
 62
     7
100
AcDbLine
 10
157.342079
 20
126.218161
 30
0.0
 11
159.422079
 21
126.218161
 31
0.0
  0
LINE
  5
187
330
1E
100
AcDbEntity
  8
1
  6
Continuous
 62
     7
100
AcDbLine
 10
157.342079
 20
125.698161
 30
0.0
 11
159.422079
 21
125.698161
 31
0.0
  0
ARC
  5
188
330
1E
100
AcDbEntity
  8
1
  6
Continuous
 62
     7
100
AcDbCircle
 10
157.342079
 20
125.958161
 30
0.0
 40
0.26
100
AcDbArc
 50
90.0
 51
270.0
  0
ARC
  5
189
330
1E
100
AcDbEntity
  8
1
  6
Continuous
 62
     7
100
AcDbCircle
 10
157.342079
 20
125.958161
 30
0.0
 40
0.26
100
AcDbArc
 50
90.0
 51
270.0
  0
LINE
  5
18A
330
1E
100
AcDbEntity
  8
1
  6
Continuous
 62
     7
100
AcDbLine
 10
157.342079
 20
125.698161
 30
0.0
 11
159.422079
 21
125.698161
 31
0.0
  0
LINE
  5
18B
330
1E
100
AcDbEntity
  8
1
  6
Continuous
 62
     7
100
AcDbLine
 10
157.342079
 20
126.218161
 30
0.0
 11
159.422079
 21
126.218161
 31
0.0
  0
ARC
  5
18C
330
1E
100
AcDbEntity
  8
1
  6
Continuous
 62
     7
100
AcDbCircle
 10
159.422079
 20
125.958161
 30
0.0
 40
0.26
100
AcDbArc
 50
270.0
 51
90.0
  0
ARC
  5
18D
330
1E
100
AcDbEntity
  8
1
  6
Continuous
 62
     7
100
AcDbCircle
 10
159.422079
 20
125.958161
 30
0.0
 40
0.26
100
AcDbArc
 50
270.0
 51
90.0
  0
LINE
  5
18E
330
1E
100
AcDbEntity
  8
1
  6
Continuous
 62
     7
100
AcDbLine
 10
157.342079
 20
126.218161
 30
0.0
 11
159.422079
 21
126.218161
 31
0.0
  0
LINE
  5
18F
330
1E
100
AcDbEntity
  8
1
  6
Continuous
 62
     7
100
AcDbLine
 10
157.342079
 20
125.698161
 30
0.0
 11
159.422079
 21
125.698161
 31
0.0
  0
ARC
  5
190
330
1E
100
AcDbEntity
  8
1
  6
Continuous
 62
     7
100
AcDbCircle
 10
157.342079
 20
125.958161
 30
0.0
 40
0.26
100
AcDbArc
 50
90.0
 51
270.0
  0
ARC
  5
191
330
1E
100
AcDbEntity
  8
1
  6
Continuous
 62
     7
100
AcDbCircle
 10
157.342079
 20
125.958161
 30
0.0
 40
0.26
100
AcDbArc
 50
90.0
 51
270.0
  0
ARC
  5
192
330
1E
100
AcDbEntity
  8
1
  6
Continuous
 62
     7
100
AcDbCircle
 10
161.372079
 20
100.608161
 30
0.0
 40
0.26
100
AcDbArc
 50
270.0
 51
90.0
  0
LINE
  5
193
330
1E
100
AcDbEntity
  8
1
  6
Continuous
 62
     7
100
AcDbLine
 10
159.2920789999999
 20
100.868161
 30
0.0
 11
161.372079
 21
100.868161
 31
0.0
  0
LINE
  5
194
330
1E
100
AcDbEntity
  8
1
  6
Continuous
 62
     7
100
AcDbLine
 10
159.2920789999999
 20
100.868161
 30
0.0
 11
161.372079
 21
100.868161
 31
0.0
  0
LINE
  5
195
330
1E
100
AcDbEntity
  8
1
  6
Continuous
 62
     7
100
AcDbLine
 10
159.2920789999999
 20
100.868161
 30
0.0
 11
161.372079
 21
100.868161
 31
0.0
  0
LINE
  5
196
330
1E
100
AcDbEntity
  8
1
  6
Continuous
 62
     7
100
AcDbLine
 10
159.2920789999999
 20
100.868161
 30
0.0
 11
161.372079
 21
100.868161
 31
0.0
  0
ARC
  5
197
330
1E
100
AcDbEntity
  8
1
  6
Continuous
 62
     7
100
AcDbCircle
 10
159.422079
 20
98.65816099999999
 30
0.0
 40
0.26
100
AcDbArc
 50
270.0
 51
90.0
  0
LINE
  5
198
330
1E
100
AcDbEntity
  8
1
  6
Continuous
 62
     7
100
AcDbLine
 10
157.342079
 20
98.91816099999999
 30
0.0
 11
159.422079
 21
98.91816099999999
 31
0.0
  0
LINE
  5
199
330
1E
100
AcDbEntity
  8
1
  6
Continuous
 62
     7
100
AcDbLine
 10
157.342079
 20
98.398161
 30
0.0
 11
159.422079
 21
98.398161
 31
0.0
  0
ARC
  5
19A
330
1E
100
AcDbEntity
  8
1
  6
Continuous
 62
     7
100
AcDbCircle
 10
157.342079
 20
98.65816099999999
 30
0.0
 40
0.26
100
AcDbArc
 50
90.0
 51
270.0
  0
ARC
  5
19B
330
1E
100
AcDbEntity
  8
1
  6
Continuous
 62
     7
100
AcDbCircle
 10
157.342079
 20
98.65816099999999
 30
0.0
 40
0.26
100
AcDbArc
 50
90.0
 51
270.0
  0
LINE
  5
19C
330
1E
100
AcDbEntity
  8
1
  6
Continuous
 62
     7
100
AcDbLine
 10
157.342079
 20
98.398161
 30
0.0
 11
159.422079
 21
98.398161
 31
0.0
  0
LINE
  5
19D
330
1E
100
AcDbEntity
  8
1
  6
Continuous
 62
     7
100
AcDbLine
 10
157.342079
 20
98.91816099999999
 30
0.0
 11
159.422079
 21
98.91816099999999
 31
0.0
  0
ARC
  5
19E
330
1E
100
AcDbEntity
  8
1
  6
Continuous
 62
     7
100
AcDbCircle
 10
159.422079
 20
98.65816099999999
 30
0.0
 40
0.26
100
AcDbArc
 50
270.0
 51
90.0
  0
ARC
  5
19F
330
1E
100
AcDbEntity
  8
1
  6
Continuous
 62
     7
100
AcDbCircle
 10
159.422079
 20
98.65816099999999
 30
0.0
 40
0.26
100
AcDbArc
 50
270.0
 51
90.0
  0
LINE
  5
1A0
330
1E
100
AcDbEntity
  8
1
  6
Continuous
 62
     7
100
AcDbLine
 10
157.342079
 20
98.91816099999999
 30
0.0
 11
159.422079
 21
98.91816099999999
 31
0.0
  0
LINE
  5
1A1
330
1E
100
AcDbEntity
  8
1
  6
Continuous
 62
     7
100
AcDbLine
 10
159.2920789999999
 20
104.248161
 30
0.0
 11
161.372079
 21
104.248161
 31
0.0
  0
LINE
  5
1A2
330
1E
100
AcDbEntity
  8
1
  6
Continuous
 62
     7
100
AcDbLine
 10
159.2920789999999
 20
104.248161
 30
0.0
 11
161.372079
 21
104.248161
 31
0.0
  0
LINE
  5
1A3
330
1E
100
AcDbEntity
  8
1
  6
Continuous
 62
     7
100
AcDbLine
 10
159.2920789999999
 20
104.248161
 30
0.0
 11
161.372079
 21
104.248161
 31
0.0
  0
LINE
  5
1A4
330
1E
100
AcDbEntity
  8
1
  6
Continuous
 62
     7
100
AcDbLine
 10
159.2920789999999
 20
104.248161
 30
0.0
 11
161.372079
 21
104.248161
 31
0.0
  0
ARC
  5
1A5
330
1E
100
AcDbEntity
  8
1
  6
Continuous
 62
     7
100
AcDbCircle
 10
159.422079
 20
102.5581609999999
 30
0.0
 40
0.26
100
AcDbArc
 50
270.0
 51
90.0
  0
LINE
  5
1A6
330
1E
100
AcDbEntity
  8
1
  6
Continuous
 62
     7
100
AcDbLine
 10
157.342079
 20
102.818161
 30
0.0
 11
159.422079
 21
102.818161
 31
0.0
  0
LINE
  5
1A7
330
1E
100
AcDbEntity
  8
1
  6
Continuous
 62
     7
100
AcDbLine
 10
157.342079
 20
102.2981609999999
 30
0.0
 11
159.422079
 21
102.2981609999999
 31
0.0
  0
ARC
  5
1A8
330
1E
100
AcDbEntity
  8
1
  6
Continuous
 62
     7
100
AcDbCircle
 10
157.342079
 20
102.5581609999999
 30
0.0
 40
0.26
100
AcDbArc
 50
90.0
 51
270.0
  0
ARC
  5
1A9
330
1E
100
AcDbEntity
  8
1
  6
Continuous
 62
     7
100
AcDbCircle
 10
157.342079
 20
102.5581609999999
 30
0.0
 40
0.26
100
AcDbArc
 50
90.0
 51
270.0
  0
LINE
  5
1AA
330
1E
100
AcDbEntity
  8
1
  6
Continuous
 62
     7
100
AcDbLine
 10
157.342079
 20
102.2981609999999
 30
0.0
 11
159.422079
 21
102.2981609999999
 31
0.0
  0
ARC
  5
1AB
330
1E
100
AcDbEntity
  8
1
  6
Continuous
 62
     7
100
AcDbCircle
 10
161.372079
 20
104.5081609999999
 30
0.0
 40
0.26
100
AcDbArc
 50
270.0
 51
90.0
  0
ARC
  5
1AC
330
1E
100
AcDbEntity
  8
1
  6
Continuous
 62
     7
100
AcDbCircle
 10
159.2920789999999
 20
104.5081609999999
 30
0.0
 40
0.26
100
AcDbArc
 50
90.0
 51
270.0
  0
ARC
  5
1AD
330
1E
100
AcDbEntity
  8
1
  6
Continuous
 62
     7
100
AcDbCircle
 10
159.2920789999999
 20
104.5081609999999
 30
0.0
 40
0.26
100
AcDbArc
 50
90.0
 51
270.0
  0
ARC
  5
1AE
330
1E
100
AcDbEntity
  8
1
  6
Continuous
 62
     7
100
AcDbCircle
 10
161.372079
 20
104.5081609999999
 30
0.0
 40
0.26
100
AcDbArc
 50
270.0
 51
90.0
  0
ARC
  5
1AF
330
1E
100
AcDbEntity
  8
1
  6
Continuous
 62
     7
100
AcDbCircle
 10
161.372079
 20
104.5081609999999
 30
0.0
 40
0.26
100
AcDbArc
 50
270.0
 51
90.0
  0
ARC
  5
1B0
330
1E
100
AcDbEntity
  8
1
  6
Continuous
 62
     7
100
AcDbCircle
 10
159.2920789999999
 20
104.5081609999999
 30
0.0
 40
0.26
100
AcDbArc
 50
90.0
 51
270.0
  0
ARC
  5
1B1
330
1E
100
AcDbEntity
  8
1
  6
Continuous
 62
     7
100
AcDbCircle
 10
159.2920789999999
 20
104.5081609999999
 30
0.0
 40
0.26
100
AcDbArc
 50
90.0
 51
270.0
  0
ARC
  5
1B2
330
1E
100
AcDbEntity
  8
1
  6
Continuous
 62
     7
100
AcDbCircle
 10
161.372079
 20
104.5081609999999
 30
0.0
 40
0.26
100
AcDbArc
 50
270.0
 51
90.0
  0
LINE
  5
1B3
330
1E
100
AcDbEntity
  8
1
  6
Continuous
 62
     7
100
AcDbLine
 10
157.342079
 20
98.398161
 30
0.0
 11
159.422079
 21
98.398161
 31
0.0
  0
ARC
  5
1B4
330
1E
100
AcDbEntity
  8
1
  6
Continuous
 62
     7
100
AcDbCircle
 10
157.342079
 20
98.65816099999999
 30
0.0
 40
0.26
100
AcDbArc
 50
90.0
 51
270.0
  0
ARC
  5
1B5
330
1E
100
AcDbEntity
  8
1
  6
Continuous
 62
     7
100
AcDbCircle
 10
157.342079
 20
98.65816099999999
 30
0.0
 40
0.26
100
AcDbArc
 50
90.0
 51
270.0
  0
LINE
  5
1B6
330
1E
100
AcDbEntity
  8
1
  6
Continuous
 62
     7
100
AcDbLine
 10
157.342079
 20
98.398161
 30
0.0
 11
159.422079
 21
98.398161
 31
0.0
  0
LINE
  5
1B7
330
1E
100
AcDbEntity
  8
1
  6
Continuous
 62
     7
100
AcDbLine
 10
157.342079
 20
98.91816099999999
 30
0.0
 11
159.422079
 21
98.91816099999999
 31
0.0
  0
ARC
  5
1B8
330
1E
100
AcDbEntity
  8
1
  6
Continuous
 62
     7
100
AcDbCircle
 10
159.422079
 20
98.65816099999999
 30
0.0
 40
0.26
100
AcDbArc
 50
270.0
 51
90.0
  0
LINE
  5
1B9
330
1E
100
AcDbEntity
  8
1
  6
Continuous
 62
     7
100
AcDbLine
 10
159.2920789999999
 20
100.348161
 30
0.0
 11
161.372079
 21
100.348161
 31
0.0
  0
LINE
  5
1BA
330
1E
100
AcDbEntity
  8
1
  6
Continuous
 62
     7
100
AcDbLine
 10
159.2920789999999
 20
100.348161
 30
0.0
 11
161.372079
 21
100.348161
 31
0.0
  0
LINE
  5
1BB
330
1E
100
AcDbEntity
  8
1
  6
Continuous
 62
     7
100
AcDbLine
 10
159.2920789999999
 20
100.348161
 30
0.0
 11
161.372079
 21
100.348161
 31
0.0
  0
LINE
  5
1BC
330
1E
100
AcDbEntity
  8
1
  6
Continuous
 62
     7
100
AcDbLine
 10
159.2920789999999
 20
100.348161
 30
0.0
 11
161.372079
 21
100.348161
 31
0.0
  0
ARC
  5
1BD
330
1E
100
AcDbEntity
  8
1
  6
Continuous
 62
     7
100
AcDbCircle
 10
161.372079
 20
100.608161
 30
0.0
 40
0.26
100
AcDbArc
 50
270.0
 51
90.0
  0
ARC
  5
1BE
330
1E
100
AcDbEntity
  8
1
  6
Continuous
 62
     7
100
AcDbCircle
 10
159.2920789999999
 20
100.608161
 30
0.0
 40
0.26
100
AcDbArc
 50
90.0
 51
270.0
  0
ARC
  5
1BF
330
1E
100
AcDbEntity
  8
1
  6
Continuous
 62
     7
100
AcDbCircle
 10
159.2920789999999
 20
100.608161
 30
0.0
 40
0.26
100
AcDbArc
 50
90.0
 51
270.0
  0
ARC
  5
1C0
330
1E
100
AcDbEntity
  8
1
  6
Continuous
 62
     7
100
AcDbCircle
 10
161.372079
 20
100.608161
 30
0.0
 40
0.26
100
AcDbArc
 50
270.0
 51
90.0
  0
ARC
  5
1C1
330
1E
100
AcDbEntity
  8
1
  6
Continuous
 62
     7
100
AcDbCircle
 10
161.372079
 20
100.608161
 30
0.0
 40
0.26
100
AcDbArc
 50
270.0
 51
90.0
  0
ARC
  5
1C2
330
1E
100
AcDbEntity
  8
1
  6
Continuous
 62
     7
100
AcDbCircle
 10
159.2920789999999
 20
100.608161
 30
0.0
 40
0.26
100
AcDbArc
 50
90.0
 51
270.0
  0
ARC
  5
1C3
330
1E
100
AcDbEntity
  8
1
  6
Continuous
 62
     7
100
AcDbCircle
 10
159.2920789999999
 20
100.608161
 30
0.0
 40
0.26
100
AcDbArc
 50
90.0
 51
270.0
  0
LINE
  5
1C4
330
1E
100
AcDbEntity
  8
1
  6
Continuous
 62
     7
100
AcDbLine
 10
180.4820789999999
 20
92.15816099999999
 30
0.0
 11
102.4820789999999
 21
92.15816099999999
 31
0.0
  0
LINE
  5
1C5
330
1E
100
AcDbEntity
  8
1
  6
Continuous
 62
     7
100
AcDbLine
 10
102.4820789999999
 20
133.7581609999999
 30
0.0
 11
180.4820789999999
 21
133.7581609999999
 31
0.0
  0
LINE
  5
1C6
330
1E
100
AcDbEntity
  8
1
  6
Continuous
 62
     7
100
AcDbLine
 10
102.4820789999999
 20
92.15816099999999
 30
0.0
 11
102.4820789999999
 21
133.7581609999999
 31
0.0
  0
LINE
  5
1C7
330
1E
100
AcDbEntity
  8
1
  6
Continuous
 62
     7
100
AcDbLine
 10
151.4920789999999
 20
108.668161
 30
0.0
 11
153.572079
 21
108.668161
 31
0.0
  0
ARC
  5
1C8
330
1E
100
AcDbEntity
  8
1
  6
Continuous
 62
     7
100
AcDbCircle
 10
151.622079
 20
106.458161
 30
0.0
 40
0.26
100
AcDbArc
 50
270.0
 51
90.0
  0
LINE
  5
1C9
330
1E
100
AcDbEntity
  8
1
  6
Continuous
 62
     7
100
AcDbLine
 10
149.542079
 20
106.718161
 30
0.0
 11
151.622079
 21
106.718161
 31
0.0
  0
LINE
  5
1CA
330
1E
100
AcDbEntity
  8
1
  6
Continuous
 62
     7
100
AcDbLine
 10
149.542079
 20
106.198161
 30
0.0
 11
151.622079
 21
106.198161
 31
0.0
  0
ARC
  5
1CB
330
1E
100
AcDbEntity
  8
1
  6
Continuous
 62
     7
100
AcDbCircle
 10
149.542079
 20
106.458161
 30
0.0
 40
0.26
100
AcDbArc
 50
90.0
 51
270.0
  0
ARC
  5
1CC
330
1E
100
AcDbEntity
  8
1
  6
Continuous
 62
     7
100
AcDbCircle
 10
149.542079
 20
106.458161
 30
0.0
 40
0.26
100
AcDbArc
 50
90.0
 51
270.0
  0
LINE
  5
1CD
330
1E
100
AcDbEntity
  8
1
  6
Continuous
 62
     7
100
AcDbLine
 10
149.542079
 20
106.198161
 30
0.0
 11
151.622079
 21
106.198161
 31
0.0
  0
LINE
  5
1CE
330
1E
100
AcDbEntity
  8
1
  6
Continuous
 62
     7
100
AcDbLine
 10
149.542079
 20
106.718161
 30
0.0
 11
151.622079
 21
106.718161
 31
0.0
  0
ARC
  5
1CF
330
1E
100
AcDbEntity
  8
1
  6
Continuous
 62
     7
100
AcDbCircle
 10
151.622079
 20
106.458161
 30
0.0
 40
0.26
100
AcDbArc
 50
270.0
 51
90.0
  0
ARC
  5
1D0
330
1E
100
AcDbEntity
  8
1
  6
Continuous
 62
     7
100
AcDbCircle
 10
151.622079
 20
106.458161
 30
0.0
 40
0.26
100
AcDbArc
 50
270.0
 51
90.0
  0
LINE
  5
1D1
330
1E
100
AcDbEntity
  8
1
  6
Continuous
 62
     7
100
AcDbLine
 10
149.542079
 20
106.718161
 30
0.0
 11
151.622079
 21
106.718161
 31
0.0
  0
LINE
  5
1D2
330
1E
100
AcDbEntity
  8
1
  6
Continuous
 62
     7
100
AcDbLine
 10
151.4920789999999
 20
104.7681609999999
 30
0.0
 11
153.572079
 21
104.7681609999999
 31
0.0
  0
LINE
  5
1D3
330
1E
100
AcDbEntity
  8
1
  6
Continuous
 62
     7
100
AcDbLine
 10
151.4920789999999
 20
104.7681609999999
 30
0.0
 11
153.572079
 21
104.7681609999999
 31
0.0
  0
LINE
  5
1D4
330
1E
100
AcDbEntity
  8
1
  6
Continuous
 62
     7
100
AcDbLine
 10
151.4920789999999
 20
104.7681609999999
 30
0.0
 11
153.572079
 21
104.7681609999999
 31
0.0
  0
LINE
  5
1D5
330
1E
100
AcDbEntity
  8
1
  6
Continuous
 62
     7
100
AcDbLine
 10
151.4920789999999
 20
104.7681609999999
 30
0.0
 11
153.572079
 21
104.7681609999999
 31
0.0
  0
LINE
  5
1D6
330
1E
100
AcDbEntity
  8
1
  6
Continuous
 62
     7
100
AcDbLine
 10
151.4920789999999
 20
112.5681609999999
 30
0.0
 11
153.572079
 21
112.5681609999999
 31
0.0
  0
LINE
  5
1D7
330
1E
100
AcDbEntity
  8
1
  6
Continuous
 62
     7
100
AcDbLine
 10
151.4920789999999
 20
112.5681609999999
 30
0.0
 11
153.572079
 21
112.5681609999999
 31
0.0
  0
LINE
  5
1D8
330
1E
100
AcDbEntity
  8
1
  6
Continuous
 62
     7
100
AcDbLine
 10
151.4920789999999
 20
112.5681609999999
 30
0.0
 11
153.572079
 21
112.5681609999999
 31
0.0
  0
LINE
  5
1D9
330
1E
100
AcDbEntity
  8
1
  6
Continuous
 62
     7
100
AcDbLine
 10
151.4920789999999
 20
112.5681609999999
 30
0.0
 11
153.572079
 21
112.5681609999999
 31
0.0
  0
LINE
  5
1DA
330
1E
100
AcDbEntity
  8
1
  6
Continuous
 62
     7
100
AcDbLine
 10
149.542079
 20
106.198161
 30
0.0
 11
151.622079
 21
106.198161
 31
0.0
  0
ARC
  5
1DB
330
1E
100
AcDbEntity
  8
1
  6
Continuous
 62
     7
100
AcDbCircle
 10
149.542079
 20
106.458161
 30
0.0
 40
0.26
100
AcDbArc
 50
90.0
 51
270.0
  0
ARC
  5
1DC
330
1E
100
AcDbEntity
  8
1
  6
Continuous
 62
     7
100
AcDbCircle
 10
149.542079
 20
106.458161
 30
0.0
 40
0.26
100
AcDbArc
 50
90.0
 51
270.0
  0
LINE
  5
1DD
330
1E
100
AcDbEntity
  8
1
  6
Continuous
 62
     7
100
AcDbLine
 10
149.542079
 20
106.198161
 30
0.0
 11
151.622079
 21
106.198161
 31
0.0
  0
LINE
  5
1DE
330
1E
100
AcDbEntity
  8
1
  6
Continuous
 62
     7
100
AcDbLine
 10
149.542079
 20
106.718161
 30
0.0
 11
151.622079
 21
106.718161
 31
0.0
  0
ARC
  5
1DF
330
1E
100
AcDbEntity
  8
1
  6
Continuous
 62
     7
100
AcDbCircle
 10
151.622079
 20
106.458161
 30
0.0
 40
0.26
100
AcDbArc
 50
270.0
 51
90.0
  0
LINE
  5
1E0
330
1E
100
AcDbEntity
  8
1
  6
Continuous
 62
     7
100
AcDbLine
 10
151.4920789999999
 20
108.148161
 30
0.0
 11
153.572079
 21
108.148161
 31
0.0
  0
LINE
  5
1E1
330
1E
100
AcDbEntity
  8
1
  6
Continuous
 62
     7
100
AcDbLine
 10
151.4920789999999
 20
108.148161
 30
0.0
 11
153.572079
 21
108.148161
 31
0.0
  0
LINE
  5
1E2
330
1E
100
AcDbEntity
  8
1
  6
Continuous
 62
     7
100
AcDbLine
 10
151.4920789999999
 20
108.148161
 30
0.0
 11
153.572079
 21
108.148161
 31
0.0
  0
LINE
  5
1E3
330
1E
100
AcDbEntity
  8
1
  6
Continuous
 62
     7
100
AcDbLine
 10
151.4920789999999
 20
108.148161
 30
0.0
 11
153.572079
 21
108.148161
 31
0.0
  0
ARC
  5
1E4
330
1E
100
AcDbEntity
  8
1
  6
Continuous
 62
     7
100
AcDbCircle
 10
153.572079
 20
108.408161
 30
0.0
 40
0.26
100
AcDbArc
 50
270.0
 51
90.0
  0
ARC
  5
1E5
330
1E
100
AcDbEntity
  8
1
  6
Continuous
 62
     7
100
AcDbCircle
 10
151.4920789999999
 20
108.408161
 30
0.0
 40
0.26
100
AcDbArc
 50
90.0
 51
270.0
  0
ARC
  5
1E6
330
1E
100
AcDbEntity
  8
1
  6
Continuous
 62
     7
100
AcDbCircle
 10
151.4920789999999
 20
108.408161
 30
0.0
 40
0.26
100
AcDbArc
 50
90.0
 51
270.0
  0
ARC
  5
1E7
330
1E
100
AcDbEntity
  8
1
  6
Continuous
 62
     7
100
AcDbCircle
 10
153.572079
 20
108.408161
 30
0.0
 40
0.26
100
AcDbArc
 50
270.0
 51
90.0
  0
ARC
  5
1E8
330
1E
100
AcDbEntity
  8
1
  6
Continuous
 62
     7
100
AcDbCircle
 10
153.572079
 20
108.408161
 30
0.0
 40
0.26
100
AcDbArc
 50
270.0
 51
90.0
  0
ARC
  5
1E9
330
1E
100
AcDbEntity
  8
1
  6
Continuous
 62
     7
100
AcDbCircle
 10
151.4920789999999
 20
108.408161
 30
0.0
 40
0.26
100
AcDbArc
 50
90.0
 51
270.0
  0
ARC
  5
1EA
330
1E
100
AcDbEntity
  8
1
  6
Continuous
 62
     7
100
AcDbCircle
 10
151.4920789999999
 20
108.408161
 30
0.0
 40
0.26
100
AcDbArc
 50
90.0
 51
270.0
  0
ARC
  5
1EB
330
1E
100
AcDbEntity
  8
1
  6
Continuous
 62
     7
100
AcDbCircle
 10
153.572079
 20
108.408161
 30
0.0
 40
0.26
100
AcDbArc
 50
270.0
 51
90.0
  0
LINE
  5
1EC
330
1E
100
AcDbEntity
  8
1
  6
Continuous
 62
     7
100
AcDbLine
 10
151.4920789999999
 20
108.668161
 30
0.0
 11
153.572079
 21
108.668161
 31
0.0
  0
LINE
  5
1ED
330
1E
100
AcDbEntity
  8
1
  6
Continuous
 62
     7
100
AcDbLine
 10
151.4920789999999
 20
108.668161
 30
0.0
 11
153.572079
 21
108.668161
 31
0.0
  0
LINE
  5
1EE
330
1E
100
AcDbEntity
  8
1
  6
Continuous
 62
     7
100
AcDbLine
 10
151.4920789999999
 20
108.668161
 30
0.0
 11
153.572079
 21
108.668161
 31
0.0
  0
ARC
  5
1EF
330
1E
100
AcDbEntity
  8
1
  6
Continuous
 62
     7
100
AcDbCircle
 10
153.572079
 20
112.308161
 30
0.0
 40
0.26
100
AcDbArc
 50
270.0
 51
90.0
  0
ARC
  5
1F0
330
1E
100
AcDbEntity
  8
1
  6
Continuous
 62
     7
100
AcDbCircle
 10
153.572079
 20
112.308161
 30
0.0
 40
0.26
100
AcDbArc
 50
270.0
 51
90.0
  0
ARC
  5
1F1
330
1E
100
AcDbEntity
  8
1
  6
Continuous
 62
     7
100
AcDbCircle
 10
151.4920789999999
 20
112.308161
 30
0.0
 40
0.26
100
AcDbArc
 50
90.0
 51
270.0
  0
ARC
  5
1F2
330
1E
100
AcDbEntity
  8
1
  6
Continuous
 62
     7
100
AcDbCircle
 10
151.4920789999999
 20
112.308161
 30
0.0
 40
0.26
100
AcDbArc
 50
90.0
 51
270.0
  0
ARC
  5
1F3
330
1E
100
AcDbEntity
  8
1
  6
Continuous
 62
     7
100
AcDbCircle
 10
153.572079
 20
112.308161
 30
0.0
 40
0.26
100
AcDbArc
 50
270.0
 51
90.0
  0
LINE
  5
1F4
330
1E
100
AcDbEntity
  8
1
  6
Continuous
 62
     7
100
AcDbLine
 10
151.4920789999999
 20
112.048161
 30
0.0
 11
153.572079
 21
112.048161
 31
0.0
  0
LINE
  5
1F5
330
1E
100
AcDbEntity
  8
1
  6
Continuous
 62
     7
100
AcDbLine
 10
151.4920789999999
 20
112.048161
 30
0.0
 11
153.572079
 21
112.048161
 31
0.0
  0
LINE
  5
1F6
330
1E
100
AcDbEntity
  8
1
  6
Continuous
 62
     7
100
AcDbLine
 10
151.4920789999999
 20
112.048161
 30
0.0
 11
153.572079
 21
112.048161
 31
0.0
  0
LINE
  5
1F7
330
1E
100
AcDbEntity
  8
1
  6
Continuous
 62
     7
100
AcDbLine
 10
151.4920789999999
 20
112.048161
 30
0.0
 11
153.572079
 21
112.048161
 31
0.0
  0
ARC
  5
1F8
330
1E
100
AcDbEntity
  8
1
  6
Continuous
 62
     7
100
AcDbCircle
 10
151.622079
 20
110.358161
 30
0.0
 40
0.26
100
AcDbArc
 50
270.0
 51
90.0
  0
LINE
  5
1F9
330
1E
100
AcDbEntity
  8
1
  6
Continuous
 62
     7
100
AcDbLine
 10
149.542079
 20
110.618161
 30
0.0
 11
151.622079
 21
110.618161
 31
0.0
  0
LINE
  5
1FA
330
1E
100
AcDbEntity
  8
1
  6
Continuous
 62
     7
100
AcDbLine
 10
149.542079
 20
110.098161
 30
0.0
 11
151.622079
 21
110.098161
 31
0.0
  0
ARC
  5
1FB
330
1E
100
AcDbEntity
  8
1
  6
Continuous
 62
     7
100
AcDbCircle
 10
149.542079
 20
110.358161
 30
0.0
 40
0.26
100
AcDbArc
 50
90.0
 51
270.0
  0
ARC
  5
1FC
330
1E
100
AcDbEntity
  8
1
  6
Continuous
 62
     7
100
AcDbCircle
 10
149.542079
 20
110.358161
 30
0.0
 40
0.26
100
AcDbArc
 50
90.0
 51
270.0
  0
LINE
  5
1FD
330
1E
100
AcDbEntity
  8
1
  6
Continuous
 62
     7
100
AcDbLine
 10
149.542079
 20
110.098161
 30
0.0
 11
151.622079
 21
110.098161
 31
0.0
  0
LINE
  5
1FE
330
1E
100
AcDbEntity
  8
1
  6
Continuous
 62
     7
100
AcDbLine
 10
149.542079
 20
110.618161
 30
0.0
 11
151.622079
 21
110.618161
 31
0.0
  0
ARC
  5
1FF
330
1E
100
AcDbEntity
  8
1
  6
Continuous
 62
     7
100
AcDbCircle
 10
151.622079
 20
110.358161
 30
0.0
 40
0.26
100
AcDbArc
 50
270.0
 51
90.0
  0
ARC
  5
200
330
1E
100
AcDbEntity
  8
1
  6
Continuous
 62
     7
100
AcDbCircle
 10
151.622079
 20
110.358161
 30
0.0
 40
0.26
100
AcDbArc
 50
270.0
 51
90.0
  0
LINE
  5
201
330
1E
100
AcDbEntity
  8
1
  6
Continuous
 62
     7
100
AcDbLine
 10
149.542079
 20
110.618161
 30
0.0
 11
151.622079
 21
110.618161
 31
0.0
  0
LINE
  5
202
330
1E
100
AcDbEntity
  8
1
  6
Continuous
 62
     7
100
AcDbLine
 10
149.542079
 20
110.098161
 30
0.0
 11
151.622079
 21
110.098161
 31
0.0
  0
ARC
  5
203
330
1E
100
AcDbEntity
  8
1
  6
Continuous
 62
     7
100
AcDbCircle
 10
149.542079
 20
110.358161
 30
0.0
 40
0.26
100
AcDbArc
 50
90.0
 51
270.0
  0
ARC
  5
204
330
1E
100
AcDbEntity
  8
1
  6
Continuous
 62
     7
100
AcDbCircle
 10
149.542079
 20
110.358161
 30
0.0
 40
0.26
100
AcDbArc
 50
90.0
 51
270.0
  0
LINE
  5
205
330
1E
100
AcDbEntity
  8
1
  6
Continuous
 62
     7
100
AcDbLine
 10
149.542079
 20
110.098161
 30
0.0
 11
151.622079
 21
110.098161
 31
0.0
  0
LINE
  5
206
330
1E
100
AcDbEntity
  8
1
  6
Continuous
 62
     7
100
AcDbLine
 10
149.542079
 20
110.618161
 30
0.0
 11
151.622079
 21
110.618161
 31
0.0
  0
ARC
  5
207
330
1E
100
AcDbEntity
  8
1
  6
Continuous
 62
     7
100
AcDbCircle
 10
151.622079
 20
110.358161
 30
0.0
 40
0.26
100
AcDbArc
 50
270.0
 51
90.0
  0
ARC
  5
208
330
1E
100
AcDbEntity
  8
1
  6
Continuous
 62
     7
100
AcDbCircle
 10
153.572079
 20
116.2081609999999
 30
0.0
 40
0.26
100
AcDbArc
 50
270.0
 51
90.0
  0
ARC
  5
209
330
1E
100
AcDbEntity
  8
1
  6
Continuous
 62
     7
100
AcDbCircle
 10
151.4920789999999
 20
116.2081609999999
 30
0.0
 40
0.26
100
AcDbArc
 50
90.0
 51
270.0
  0
ARC
  5
20A
330
1E
100
AcDbEntity
  8
1
  6
Continuous
 62
     7
100
AcDbCircle
 10
151.4920789999999
 20
116.2081609999999
 30
0.0
 40
0.26
100
AcDbArc
 50
90.0
 51
270.0
  0
ARC
  5
20B
330
1E
100
AcDbEntity
  8
1
  6
Continuous
 62
     7
100
AcDbCircle
 10
153.572079
 20
116.2081609999999
 30
0.0
 40
0.26
100
AcDbArc
 50
270.0
 51
90.0
  0
ARC
  5
20C
330
1E
100
AcDbEntity
  8
1
  6
Continuous
 62
     7
100
AcDbCircle
 10
153.572079
 20
116.2081609999999
 30
0.0
 40
0.26
100
AcDbArc
 50
270.0
 51
90.0
  0
ARC
  5
20D
330
1E
100
AcDbEntity
  8
1
  6
Continuous
 62
     7
100
AcDbCircle
 10
151.4920789999999
 20
116.2081609999999
 30
0.0
 40
0.26
100
AcDbArc
 50
90.0
 51
270.0
  0
ARC
  5
20E
330
1E
100
AcDbEntity
  8
1
  6
Continuous
 62
     7
100
AcDbCircle
 10
151.4920789999999
 20
116.2081609999999
 30
0.0
 40
0.26
100
AcDbArc
 50
90.0
 51
270.0
  0
ARC
  5
20F
330
1E
100
AcDbEntity
  8
1
  6
Continuous
 62
     7
100
AcDbCircle
 10
153.572079
 20
116.2081609999999
 30
0.0
 40
0.26
100
AcDbArc
 50
270.0
 51
90.0
  0
LINE
  5
210
330
1E
100
AcDbEntity
  8
1
  6
Continuous
 62
     7
100
AcDbLine
 10
151.4920789999999
 20
116.468161
 30
0.0
 11
153.572079
 21
116.468161
 31
0.0
  0
LINE
  5
211
330
1E
100
AcDbEntity
  8
1
  6
Continuous
 62
     7
100
AcDbLine
 10
151.4920789999999
 20
116.468161
 30
0.0
 11
153.572079
 21
116.468161
 31
0.0
  0
LINE
  5
212
330
1E
100
AcDbEntity
  8
1
  6
Continuous
 62
     7
100
AcDbLine
 10
151.4920789999999
 20
116.468161
 30
0.0
 11
153.572079
 21
116.468161
 31
0.0
  0
LINE
  5
213
330
1E
100
AcDbEntity
  8
1
  6
Continuous
 62
     7
100
AcDbLine
 10
151.4920789999999
 20
116.468161
 30
0.0
 11
153.572079
 21
116.468161
 31
0.0
  0
ARC
  5
214
330
1E
100
AcDbEntity
  8
1
  6
Continuous
 62
     7
100
AcDbCircle
 10
151.622079
 20
114.258161
 30
0.0
 40
0.26
100
AcDbArc
 50
270.0
 51
90.0
  0
LINE
  5
215
330
1E
100
AcDbEntity
  8
1
  6
Continuous
 62
     7
100
AcDbLine
 10
149.542079
 20
114.518161
 30
0.0
 11
151.622079
 21
114.518161
 31
0.0
  0
LINE
  5
216
330
1E
100
AcDbEntity
  8
1
  6
Continuous
 62
     7
100
AcDbLine
 10
149.542079
 20
113.998161
 30
0.0
 11
151.622079
 21
113.998161
 31
0.0
  0
ARC
  5
217
330
1E
100
AcDbEntity
  8
1
  6
Continuous
 62
     7
100
AcDbCircle
 10
149.542079
 20
114.258161
 30
0.0
 40
0.26
100
AcDbArc
 50
90.0
 51
270.0
  0
ARC
  5
218
330
1E
100
AcDbEntity
  8
1
  6
Continuous
 62
     7
100
AcDbCircle
 10
149.542079
 20
114.258161
 30
0.0
 40
0.26
100
AcDbArc
 50
90.0
 51
270.0
  0
LINE
  5
219
330
1E
100
AcDbEntity
  8
1
  6
Continuous
 62
     7
100
AcDbLine
 10
149.542079
 20
113.998161
 30
0.0
 11
151.622079
 21
113.998161
 31
0.0
  0
LINE
  5
21A
330
1E
100
AcDbEntity
  8
1
  6
Continuous
 62
     7
100
AcDbLine
 10
149.542079
 20
114.518161
 30
0.0
 11
151.622079
 21
114.518161
 31
0.0
  0
ARC
  5
21B
330
1E
100
AcDbEntity
  8
1
  6
Continuous
 62
     7
100
AcDbCircle
 10
151.622079
 20
114.258161
 30
0.0
 40
0.26
100
AcDbArc
 50
270.0
 51
90.0
  0
ARC
  5
21C
330
1E
100
AcDbEntity
  8
1
  6
Continuous
 62
     7
100
AcDbCircle
 10
151.622079
 20
114.258161
 30
0.0
 40
0.26
100
AcDbArc
 50
270.0
 51
90.0
  0
LINE
  5
21D
330
1E
100
AcDbEntity
  8
1
  6
Continuous
 62
     7
100
AcDbLine
 10
149.542079
 20
114.518161
 30
0.0
 11
151.622079
 21
114.518161
 31
0.0
  0
ARC
  5
21E
330
1E
100
AcDbEntity
  8
1
  6
Continuous
 62
     7
100
AcDbCircle
 10
153.572079
 20
112.308161
 30
0.0
 40
0.26
100
AcDbArc
 50
270.0
 51
90.0
  0
ARC
  5
21F
330
1E
100
AcDbEntity
  8
1
  6
Continuous
 62
     7
100
AcDbCircle
 10
151.4920789999999
 20
112.308161
 30
0.0
 40
0.26
100
AcDbArc
 50
90.0
 51
270.0
  0
ARC
  5
220
330
1E
100
AcDbEntity
  8
1
  6
Continuous
 62
     7
100
AcDbCircle
 10
151.4920789999999
 20
112.308161
 30
0.0
 40
0.26
100
AcDbArc
 50
90.0
 51
270.0
  0
LINE
  5
221
330
1E
100
AcDbEntity
  8
1
  6
Continuous
 62
     7
100
AcDbLine
 10
149.542079
 20
117.898161
 30
0.0
 11
151.622079
 21
117.898161
 31
0.0
  0
LINE
  5
222
330
1E
100
AcDbEntity
  8
1
  6
Continuous
 62
     7
100
AcDbLine
 10
149.542079
 20
118.418161
 30
0.0
 11
151.622079
 21
118.418161
 31
0.0
  0
ARC
  5
223
330
1E
100
AcDbEntity
  8
1
  6
Continuous
 62
     7
100
AcDbCircle
 10
151.622079
 20
118.158161
 30
0.0
 40
0.26
100
AcDbArc
 50
270.0
 51
90.0
  0
ARC
  5
224
330
1E
100
AcDbEntity
  8
1
  6
Continuous
 62
     7
100
AcDbCircle
 10
151.622079
 20
118.158161
 30
0.0
 40
0.26
100
AcDbArc
 50
270.0
 51
90.0
  0
LINE
  5
225
330
1E
100
AcDbEntity
  8
1
  6
Continuous
 62
     7
100
AcDbLine
 10
149.542079
 20
118.418161
 30
0.0
 11
151.622079
 21
118.418161
 31
0.0
  0
LINE
  5
226
330
1E
100
AcDbEntity
  8
1
  6
Continuous
 62
     7
100
AcDbLine
 10
149.542079
 20
117.898161
 30
0.0
 11
151.622079
 21
117.898161
 31
0.0
  0
ARC
  5
227
330
1E
100
AcDbEntity
  8
1
  6
Continuous
 62
     7
100
AcDbCircle
 10
149.542079
 20
118.158161
 30
0.0
 40
0.26
100
AcDbArc
 50
90.0
 51
270.0
  0
ARC
  5
228
330
1E
100
AcDbEntity
  8
1
  6
Continuous
 62
     7
100
AcDbCircle
 10
149.542079
 20
118.158161
 30
0.0
 40
0.26
100
AcDbArc
 50
90.0
 51
270.0
  0
LINE
  5
229
330
1E
100
AcDbEntity
  8
1
  6
Continuous
 62
     7
100
AcDbLine
 10
149.542079
 20
117.898161
 30
0.0
 11
151.622079
 21
117.898161
 31
0.0
  0
LINE
  5
22A
330
1E
100
AcDbEntity
  8
1
  6
Continuous
 62
     7
100
AcDbLine
 10
149.542079
 20
118.418161
 30
0.0
 11
151.622079
 21
118.418161
 31
0.0
  0
ARC
  5
22B
330
1E
100
AcDbEntity
  8
1
  6
Continuous
 62
     7
100
AcDbCircle
 10
151.622079
 20
118.158161
 30
0.0
 40
0.26
100
AcDbArc
 50
270.0
 51
90.0
  0
LINE
  5
22C
330
1E
100
AcDbEntity
  8
1
  6
Continuous
 62
     7
100
AcDbLine
 10
151.4920789999999
 20
120.368161
 30
0.0
 11
153.572079
 21
120.368161
 31
0.0
  0
LINE
  5
22D
330
1E
100
AcDbEntity
  8
1
  6
Continuous
 62
     7
100
AcDbLine
 10
151.4920789999999
 20
120.368161
 30
0.0
 11
153.572079
 21
120.368161
 31
0.0
  0
LINE
  5
22E
330
1E
100
AcDbEntity
  8
1
  6
Continuous
 62
     7
100
AcDbLine
 10
151.4920789999999
 20
120.368161
 30
0.0
 11
153.572079
 21
120.368161
 31
0.0
  0
LINE
  5
22F
330
1E
100
AcDbEntity
  8
1
  6
Continuous
 62
     7
100
AcDbLine
 10
151.4920789999999
 20
120.368161
 30
0.0
 11
153.572079
 21
120.368161
 31
0.0
  0
LINE
  5
230
330
1E
100
AcDbEntity
  8
1
  6
Continuous
 62
     7
100
AcDbLine
 10
149.542079
 20
113.998161
 30
0.0
 11
151.622079
 21
113.998161
 31
0.0
  0
ARC
  5
231
330
1E
100
AcDbEntity
  8
1
  6
Continuous
 62
     7
100
AcDbCircle
 10
149.542079
 20
114.258161
 30
0.0
 40
0.26
100
AcDbArc
 50
90.0
 51
270.0
  0
ARC
  5
232
330
1E
100
AcDbEntity
  8
1
  6
Continuous
 62
     7
100
AcDbCircle
 10
149.542079
 20
114.258161
 30
0.0
 40
0.26
100
AcDbArc
 50
90.0
 51
270.0
  0
LINE
  5
233
330
1E
100
AcDbEntity
  8
1
  6
Continuous
 62
     7
100
AcDbLine
 10
149.542079
 20
113.998161
 30
0.0
 11
151.622079
 21
113.998161
 31
0.0
  0
LINE
  5
234
330
1E
100
AcDbEntity
  8
1
  6
Continuous
 62
     7
100
AcDbLine
 10
149.542079
 20
114.518161
 30
0.0
 11
151.622079
 21
114.518161
 31
0.0
  0
ARC
  5
235
330
1E
100
AcDbEntity
  8
1
  6
Continuous
 62
     7
100
AcDbCircle
 10
151.622079
 20
114.258161
 30
0.0
 40
0.26
100
AcDbArc
 50
270.0
 51
90.0
  0
LINE
  5
236
330
1E
100
AcDbEntity
  8
1
  6
Continuous
 62
     7
100
AcDbLine
 10
151.4920789999999
 20
115.948161
 30
0.0
 11
153.572079
 21
115.948161
 31
0.0
  0
LINE
  5
237
330
1E
100
AcDbEntity
  8
1
  6
Continuous
 62
     7
100
AcDbLine
 10
151.4920789999999
 20
115.948161
 30
0.0
 11
153.572079
 21
115.948161
 31
0.0
  0
LINE
  5
238
330
1E
100
AcDbEntity
  8
1
  6
Continuous
 62
     7
100
AcDbLine
 10
151.4920789999999
 20
115.948161
 30
0.0
 11
153.572079
 21
115.948161
 31
0.0
  0
LINE
  5
239
330
1E
100
AcDbEntity
  8
1
  6
Continuous
 62
     7
100
AcDbLine
 10
151.4920789999999
 20
115.948161
 30
0.0
 11
153.572079
 21
115.948161
 31
0.0
  0
ARC
  5
23A
330
1E
100
AcDbEntity
  8
1
  6
Continuous
 62
     7
100
AcDbCircle
 10
153.572079
 20
124.008161
 30
0.0
 40
0.26
100
AcDbArc
 50
270.0
 51
90.0
  0
ARC
  5
23B
330
1E
100
AcDbEntity
  8
1
  6
Continuous
 62
     7
100
AcDbCircle
 10
151.4920789999999
 20
124.008161
 30
0.0
 40
0.26
100
AcDbArc
 50
90.0
 51
270.0
  0
ARC
  5
23C
330
1E
100
AcDbEntity
  8
1
  6
Continuous
 62
     7
100
AcDbCircle
 10
151.4920789999999
 20
124.008161
 30
0.0
 40
0.26
100
AcDbArc
 50
90.0
 51
270.0
  0
ARC
  5
23D
330
1E
100
AcDbEntity
  8
1
  6
Continuous
 62
     7
100
AcDbCircle
 10
153.572079
 20
124.008161
 30
0.0
 40
0.26
100
AcDbArc
 50
270.0
 51
90.0
  0
LINE
  5
23E
330
1E
100
AcDbEntity
  8
1
  6
Continuous
 62
     7
100
AcDbLine
 10
151.4920789999999
 20
124.2681609999999
 30
0.0
 11
153.572079
 21
124.2681609999999
 31
0.0
  0
LINE
  5
23F
330
1E
100
AcDbEntity
  8
1
  6
Continuous
 62
     7
100
AcDbLine
 10
151.4920789999999
 20
124.2681609999999
 30
0.0
 11
153.572079
 21
124.2681609999999
 31
0.0
  0
LINE
  5
240
330
1E
100
AcDbEntity
  8
1
  6
Continuous
 62
     7
100
AcDbLine
 10
151.4920789999999
 20
124.2681609999999
 30
0.0
 11
153.572079
 21
124.2681609999999
 31
0.0
  0
LINE
  5
241
330
1E
100
AcDbEntity
  8
1
  6
Continuous
 62
     7
100
AcDbLine
 10
151.4920789999999
 20
124.2681609999999
 30
0.0
 11
153.572079
 21
124.2681609999999
 31
0.0
  0
ARC
  5
242
330
1E
100
AcDbEntity
  8
1
  6
Continuous
 62
     7
100
AcDbCircle
 10
153.572079
 20
120.108161
 30
0.0
 40
0.26
100
AcDbArc
 50
270.0
 51
90.0
  0
ARC
  5
243
330
1E
100
AcDbEntity
  8
1
  6
Continuous
 62
     7
100
AcDbCircle
 10
151.4920789999999
 20
120.108161
 30
0.0
 40
0.26
100
AcDbArc
 50
90.0
 51
270.0
  0
ARC
  5
244
330
1E
100
AcDbEntity
  8
1
  6
Continuous
 62
     7
100
AcDbCircle
 10
151.4920789999999
 20
120.108161
 30
0.0
 40
0.26
100
AcDbArc
 50
90.0
 51
270.0
  0
ARC
  5
245
330
1E
100
AcDbEntity
  8
1
  6
Continuous
 62
     7
100
AcDbCircle
 10
153.572079
 20
120.108161
 30
0.0
 40
0.26
100
AcDbArc
 50
270.0
 51
90.0
  0
ARC
  5
246
330
1E
100
AcDbEntity
  8
1
  6
Continuous
 62
     7
100
AcDbCircle
 10
153.572079
 20
120.108161
 30
0.0
 40
0.26
100
AcDbArc
 50
270.0
 51
90.0
  0
ARC
  5
247
330
1E
100
AcDbEntity
  8
1
  6
Continuous
 62
     7
100
AcDbCircle
 10
151.4920789999999
 20
120.108161
 30
0.0
 40
0.26
100
AcDbArc
 50
90.0
 51
270.0
  0
ARC
  5
248
330
1E
100
AcDbEntity
  8
1
  6
Continuous
 62
     7
100
AcDbCircle
 10
151.4920789999999
 20
120.108161
 30
0.0
 40
0.26
100
AcDbArc
 50
90.0
 51
270.0
  0
ARC
  5
249
330
1E
100
AcDbEntity
  8
1
  6
Continuous
 62
     7
100
AcDbCircle
 10
153.572079
 20
120.108161
 30
0.0
 40
0.26
100
AcDbArc
 50
270.0
 51
90.0
  0
LINE
  5
24A
330
1E
100
AcDbEntity
  8
1
  6
Continuous
 62
     7
100
AcDbLine
 10
151.4920789999999
 20
119.8481609999999
 30
0.0
 11
153.572079
 21
119.8481609999999
 31
0.0
  0
LINE
  5
24B
330
1E
100
AcDbEntity
  8
1
  6
Continuous
 62
     7
100
AcDbLine
 10
151.4920789999999
 20
119.8481609999999
 30
0.0
 11
153.572079
 21
119.8481609999999
 31
0.0
  0
LINE
  5
24C
330
1E
100
AcDbEntity
  8
1
  6
Continuous
 62
     7
100
AcDbLine
 10
151.4920789999999
 20
119.8481609999999
 30
0.0
 11
153.572079
 21
119.8481609999999
 31
0.0
  0
LINE
  5
24D
330
1E
100
AcDbEntity
  8
1
  6
Continuous
 62
     7
100
AcDbLine
 10
151.4920789999999
 20
119.8481609999999
 30
0.0
 11
153.572079
 21
119.8481609999999
 31
0.0
  0
ARC
  5
24E
330
1E
100
AcDbEntity
  8
1
  6
Continuous
 62
     7
100
AcDbCircle
 10
151.622079
 20
118.158161
 30
0.0
 40
0.26
100
AcDbArc
 50
270.0
 51
90.0
  0
LINE
  5
24F
330
1E
100
AcDbEntity
  8
1
  6
Continuous
 62
     7
100
AcDbLine
 10
149.542079
 20
118.418161
 30
0.0
 11
151.622079
 21
118.418161
 31
0.0
  0
LINE
  5
250
330
1E
100
AcDbEntity
  8
1
  6
Continuous
 62
     7
100
AcDbLine
 10
149.542079
 20
117.898161
 30
0.0
 11
151.622079
 21
117.898161
 31
0.0
  0
ARC
  5
251
330
1E
100
AcDbEntity
  8
1
  6
Continuous
 62
     7
100
AcDbCircle
 10
149.542079
 20
118.158161
 30
0.0
 40
0.26
100
AcDbArc
 50
90.0
 51
270.0
  0
ARC
  5
252
330
1E
100
AcDbEntity
  8
1
  6
Continuous
 62
     7
100
AcDbCircle
 10
149.542079
 20
118.158161
 30
0.0
 40
0.26
100
AcDbArc
 50
90.0
 51
270.0
  0
LINE
  5
253
330
1E
100
AcDbEntity
  8
1
  6
Continuous
 62
     7
100
AcDbLine
 10
149.542079
 20
125.698161
 30
0.0
 11
151.622079
 21
125.698161
 31
0.0
  0
LINE
  5
254
330
1E
100
AcDbEntity
  8
1
  6
Continuous
 62
     7
100
AcDbLine
 10
149.542079
 20
121.798161
 30
0.0
 11
151.622079
 21
121.798161
 31
0.0
  0
ARC
  5
255
330
1E
100
AcDbEntity
  8
1
  6
Continuous
 62
     7
100
AcDbCircle
 10
149.542079
 20
122.058161
 30
0.0
 40
0.26
100
AcDbArc
 50
90.0
 51
270.0
  0
ARC
  5
256
330
1E
100
AcDbEntity
  8
1
  6
Continuous
 62
     7
100
AcDbCircle
 10
149.542079
 20
122.058161
 30
0.0
 40
0.26
100
AcDbArc
 50
90.0
 51
270.0
  0
LINE
  5
257
330
1E
100
AcDbEntity
  8
1
  6
Continuous
 62
     7
100
AcDbLine
 10
149.542079
 20
121.798161
 30
0.0
 11
151.622079
 21
121.798161
 31
0.0
  0
LINE
  5
258
330
1E
100
AcDbEntity
  8
1
  6
Continuous
 62
     7
100
AcDbLine
 10
149.542079
 20
122.318161
 30
0.0
 11
151.622079
 21
122.318161
 31
0.0
  0
ARC
  5
259
330
1E
100
AcDbEntity
  8
1
  6
Continuous
 62
     7
100
AcDbCircle
 10
151.622079
 20
122.058161
 30
0.0
 40
0.26
100
AcDbArc
 50
270.0
 51
90.0
  0
ARC
  5
25A
330
1E
100
AcDbEntity
  8
1
  6
Continuous
 62
     7
100
AcDbCircle
 10
151.622079
 20
122.058161
 30
0.0
 40
0.26
100
AcDbArc
 50
270.0
 51
90.0
  0
LINE
  5
25B
330
1E
100
AcDbEntity
  8
1
  6
Continuous
 62
     7
100
AcDbLine
 10
149.542079
 20
122.318161
 30
0.0
 11
151.622079
 21
122.318161
 31
0.0
  0
LINE
  5
25C
330
1E
100
AcDbEntity
  8
1
  6
Continuous
 62
     7
100
AcDbLine
 10
149.542079
 20
121.798161
 30
0.0
 11
151.622079
 21
121.798161
 31
0.0
  0
ARC
  5
25D
330
1E
100
AcDbEntity
  8
1
  6
Continuous
 62
     7
100
AcDbCircle
 10
149.542079
 20
122.058161
 30
0.0
 40
0.26
100
AcDbArc
 50
90.0
 51
270.0
  0
ARC
  5
25E
330
1E
100
AcDbEntity
  8
1
  6
Continuous
 62
     7
100
AcDbCircle
 10
149.542079
 20
122.058161
 30
0.0
 40
0.26
100
AcDbArc
 50
90.0
 51
270.0
  0
LINE
  5
25F
330
1E
100
AcDbEntity
  8
1
  6
Continuous
 62
     7
100
AcDbLine
 10
149.542079
 20
121.798161
 30
0.0
 11
151.622079
 21
121.798161
 31
0.0
  0
LINE
  5
260
330
1E
100
AcDbEntity
  8
1
  6
Continuous
 62
     7
100
AcDbLine
 10
149.542079
 20
122.318161
 30
0.0
 11
151.622079
 21
122.318161
 31
0.0
  0
ARC
  5
261
330
1E
100
AcDbEntity
  8
1
  6
Continuous
 62
     7
100
AcDbCircle
 10
151.622079
 20
122.058161
 30
0.0
 40
0.26
100
AcDbArc
 50
270.0
 51
90.0
  0
ARC
  5
262
330
1E
100
AcDbEntity
  8
1
  6
Continuous
 62
     7
100
AcDbCircle
 10
151.622079
 20
122.058161
 30
0.0
 40
0.26
100
AcDbArc
 50
270.0
 51
90.0
  0
LINE
  5
263
330
1E
100
AcDbEntity
  8
1
  6
Continuous
 62
     7
100
AcDbLine
 10
149.542079
 20
122.318161
 30
0.0
 11
151.622079
 21
122.318161
 31
0.0
  0
LINE
  5
264
330
1E
100
AcDbEntity
  8
1
  6
Continuous
 62
     7
100
AcDbLine
 10
151.4920789999999
 20
123.748161
 30
0.0
 11
153.572079
 21
123.748161
 31
0.0
  0
LINE
  5
265
330
1E
100
AcDbEntity
  8
1
  6
Continuous
 62
     7
100
AcDbLine
 10
151.4920789999999
 20
123.748161
 30
0.0
 11
153.572079
 21
123.748161
 31
0.0
  0
LINE
  5
266
330
1E
100
AcDbEntity
  8
1
  6
Continuous
 62
     7
100
AcDbLine
 10
151.4920789999999
 20
123.748161
 30
0.0
 11
153.572079
 21
123.748161
 31
0.0
  0
LINE
  5
267
330
1E
100
AcDbEntity
  8
1
  6
Continuous
 62
     7
100
AcDbLine
 10
151.4920789999999
 20
123.748161
 30
0.0
 11
153.572079
 21
123.748161
 31
0.0
  0
ARC
  5
268
330
1E
100
AcDbEntity
  8
1
  6
Continuous
 62
     7
100
AcDbCircle
 10
153.572079
 20
124.008161
 30
0.0
 40
0.26
100
AcDbArc
 50
270.0
 51
90.0
  0
ARC
  5
269
330
1E
100
AcDbEntity
  8
1
  6
Continuous
 62
     7
100
AcDbCircle
 10
151.4920789999999
 20
124.008161
 30
0.0
 40
0.26
100
AcDbArc
 50
90.0
 51
270.0
  0
ARC
  5
26A
330
1E
100
AcDbEntity
  8
1
  6
Continuous
 62
     7
100
AcDbCircle
 10
151.4920789999999
 20
124.008161
 30
0.0
 40
0.26
100
AcDbArc
 50
90.0
 51
270.0
  0
ARC
  5
26B
330
1E
100
AcDbEntity
  8
1
  6
Continuous
 62
     7
100
AcDbCircle
 10
153.572079
 20
124.008161
 30
0.0
 40
0.26
100
AcDbArc
 50
270.0
 51
90.0
  0
LINE
  5
26C
330
1E
100
AcDbEntity
  8
1
  6
Continuous
 62
     7
100
AcDbLine
 10
149.542079
 20
102.818161
 30
0.0
 11
151.622079
 21
102.818161
 31
0.0
  0
ARC
  5
26D
330
1E
100
AcDbEntity
  8
1
  6
Continuous
 62
     7
100
AcDbCircle
 10
151.622079
 20
102.5581609999999
 30
0.0
 40
0.26
100
AcDbArc
 50
270.0
 51
90.0
  0
ARC
  5
26E
330
1E
100
AcDbEntity
  8
1
  6
Continuous
 62
     7
100
AcDbCircle
 10
151.622079
 20
102.5581609999999
 30
0.0
 40
0.26
100
AcDbArc
 50
270.0
 51
90.0
  0
LINE
  5
26F
330
1E
100
AcDbEntity
  8
1
  6
Continuous
 62
     7
100
AcDbLine
 10
149.542079
 20
102.818161
 30
0.0
 11
151.622079
 21
102.818161
 31
0.0
  0
LINE
  5
270
330
1E
100
AcDbEntity
  8
1
  6
Continuous
 62
     7
100
AcDbLine
 10
149.542079
 20
102.2981609999999
 30
0.0
 11
151.622079
 21
102.2981609999999
 31
0.0
  0
ARC
  5
271
330
1E
100
AcDbEntity
  8
1
  6
Continuous
 62
     7
100
AcDbCircle
 10
149.542079
 20
102.5581609999999
 30
0.0
 40
0.26
100
AcDbArc
 50
90.0
 51
270.0
  0
ARC
  5
272
330
1E
100
AcDbEntity
  8
1
  6
Continuous
 62
     7
100
AcDbCircle
 10
149.542079
 20
102.5581609999999
 30
0.0
 40
0.26
100
AcDbArc
 50
90.0
 51
270.0
  0
LINE
  5
273
330
1E
100
AcDbEntity
  8
1
  6
Continuous
 62
     7
100
AcDbLine
 10
149.542079
 20
102.2981609999999
 30
0.0
 11
151.622079
 21
102.2981609999999
 31
0.0
  0
LINE
  5
274
330
1E
100
AcDbEntity
  8
1
  6
Continuous
 62
     7
100
AcDbLine
 10
149.542079
 20
102.818161
 30
0.0
 11
151.622079
 21
102.818161
 31
0.0
  0
ARC
  5
275
330
1E
100
AcDbEntity
  8
1
  6
Continuous
 62
     7
100
AcDbCircle
 10
151.622079
 20
102.5581609999999
 30
0.0
 40
0.26
100
AcDbArc
 50
270.0
 51
90.0
  0
LINE
  5
276
330
1E
100
AcDbEntity
  8
1
  6
Continuous
 62
     7
100
AcDbLine
 10
149.542079
 20
126.218161
 30
0.0
 11
151.622079
 21
126.218161
 31
0.0
  0
ARC
  5
277
330
1E
100
AcDbEntity
  8
1
  6
Continuous
 62
     7
100
AcDbCircle
 10
151.622079
 20
125.958161
 30
0.0
 40
0.26
100
AcDbArc
 50
270.0
 51
90.0
  0
ARC
  5
278
330
1E
100
AcDbEntity
  8
1
  6
Continuous
 62
     7
100
AcDbCircle
 10
151.622079
 20
125.958161
 30
0.0
 40
0.26
100
AcDbArc
 50
270.0
 51
90.0
  0
LINE
  5
279
330
1E
100
AcDbEntity
  8
1
  6
Continuous
 62
     7
100
AcDbLine
 10
149.542079
 20
126.218161
 30
0.0
 11
151.622079
 21
126.218161
 31
0.0
  0
LINE
  5
27A
330
1E
100
AcDbEntity
  8
1
  6
Continuous
 62
     7
100
AcDbLine
 10
149.542079
 20
125.698161
 30
0.0
 11
151.622079
 21
125.698161
 31
0.0
  0
ARC
  5
27B
330
1E
100
AcDbEntity
  8
1
  6
Continuous
 62
     7
100
AcDbCircle
 10
149.542079
 20
125.958161
 30
0.0
 40
0.26
100
AcDbArc
 50
90.0
 51
270.0
  0
ARC
  5
27C
330
1E
100
AcDbEntity
  8
1
  6
Continuous
 62
     7
100
AcDbCircle
 10
149.542079
 20
125.958161
 30
0.0
 40
0.26
100
AcDbArc
 50
90.0
 51
270.0
  0
LINE
  5
27D
330
1E
100
AcDbEntity
  8
1
  6
Continuous
 62
     7
100
AcDbLine
 10
149.542079
 20
125.698161
 30
0.0
 11
151.622079
 21
125.698161
 31
0.0
  0
LINE
  5
27E
330
1E
100
AcDbEntity
  8
1
  6
Continuous
 62
     7
100
AcDbLine
 10
149.542079
 20
126.218161
 30
0.0
 11
151.622079
 21
126.218161
 31
0.0
  0
ARC
  5
27F
330
1E
100
AcDbEntity
  8
1
  6
Continuous
 62
     7
100
AcDbCircle
 10
151.622079
 20
125.958161
 30
0.0
 40
0.26
100
AcDbArc
 50
270.0
 51
90.0
  0
ARC
  5
280
330
1E
100
AcDbEntity
  8
1
  6
Continuous
 62
     7
100
AcDbCircle
 10
151.622079
 20
125.958161
 30
0.0
 40
0.26
100
AcDbArc
 50
270.0
 51
90.0
  0
LINE
  5
281
330
1E
100
AcDbEntity
  8
1
  6
Continuous
 62
     7
100
AcDbLine
 10
149.542079
 20
126.218161
 30
0.0
 11
151.622079
 21
126.218161
 31
0.0
  0
LINE
  5
282
330
1E
100
AcDbEntity
  8
1
  6
Continuous
 62
     7
100
AcDbLine
 10
149.542079
 20
125.698161
 30
0.0
 11
151.622079
 21
125.698161
 31
0.0
  0
ARC
  5
283
330
1E
100
AcDbEntity
  8
1
  6
Continuous
 62
     7
100
AcDbCircle
 10
149.542079
 20
125.958161
 30
0.0
 40
0.26
100
AcDbArc
 50
90.0
 51
270.0
  0
ARC
  5
284
330
1E
100
AcDbEntity
  8
1
  6
Continuous
 62
     7
100
AcDbCircle
 10
149.542079
 20
125.958161
 30
0.0
 40
0.26
100
AcDbArc
 50
90.0
 51
270.0
  0
ARC
  5
285
330
1E
100
AcDbEntity
  8
1
  6
Continuous
 62
     7
100
AcDbCircle
 10
153.572079
 20
100.608161
 30
0.0
 40
0.26
100
AcDbArc
 50
270.0
 51
90.0
  0
LINE
  5
286
330
1E
100
AcDbEntity
  8
1
  6
Continuous
 62
     7
100
AcDbLine
 10
151.4920789999999
 20
100.868161
 30
0.0
 11
153.572079
 21
100.868161
 31
0.0
  0
LINE
  5
287
330
1E
100
AcDbEntity
  8
1
  6
Continuous
 62
     7
100
AcDbLine
 10
151.4920789999999
 20
100.868161
 30
0.0
 11
153.572079
 21
100.868161
 31
0.0
  0
LINE
  5
288
330
1E
100
AcDbEntity
  8
1
  6
Continuous
 62
     7
100
AcDbLine
 10
151.4920789999999
 20
100.868161
 30
0.0
 11
153.572079
 21
100.868161
 31
0.0
  0
LINE
  5
289
330
1E
100
AcDbEntity
  8
1
  6
Continuous
 62
     7
100
AcDbLine
 10
151.4920789999999
 20
100.868161
 30
0.0
 11
153.572079
 21
100.868161
 31
0.0
  0
ARC
  5
28A
330
1E
100
AcDbEntity
  8
1
  6
Continuous
 62
     7
100
AcDbCircle
 10
151.622079
 20
98.65816099999999
 30
0.0
 40
0.26
100
AcDbArc
 50
270.0
 51
90.0
  0
LINE
  5
28B
330
1E
100
AcDbEntity
  8
1
  6
Continuous
 62
     7
100
AcDbLine
 10
149.542079
 20
98.91816099999999
 30
0.0
 11
151.622079
 21
98.91816099999999
 31
0.0
  0
LINE
  5
28C
330
1E
100
AcDbEntity
  8
1
  6
Continuous
 62
     7
100
AcDbLine
 10
149.542079
 20
98.398161
 30
0.0
 11
151.622079
 21
98.398161
 31
0.0
  0
ARC
  5
28D
330
1E
100
AcDbEntity
  8
1
  6
Continuous
 62
     7
100
AcDbCircle
 10
149.542079
 20
98.65816099999999
 30
0.0
 40
0.26
100
AcDbArc
 50
90.0
 51
270.0
  0
ARC
  5
28E
330
1E
100
AcDbEntity
  8
1
  6
Continuous
 62
     7
100
AcDbCircle
 10
149.542079
 20
98.65816099999999
 30
0.0
 40
0.26
100
AcDbArc
 50
90.0
 51
270.0
  0
LINE
  5
28F
330
1E
100
AcDbEntity
  8
1
  6
Continuous
 62
     7
100
AcDbLine
 10
149.542079
 20
98.398161
 30
0.0
 11
151.622079
 21
98.398161
 31
0.0
  0
LINE
  5
290
330
1E
100
AcDbEntity
  8
1
  6
Continuous
 62
     7
100
AcDbLine
 10
149.542079
 20
98.91816099999999
 30
0.0
 11
151.622079
 21
98.91816099999999
 31
0.0
  0
ARC
  5
291
330
1E
100
AcDbEntity
  8
1
  6
Continuous
 62
     7
100
AcDbCircle
 10
151.622079
 20
98.65816099999999
 30
0.0
 40
0.26
100
AcDbArc
 50
270.0
 51
90.0
  0
ARC
  5
292
330
1E
100
AcDbEntity
  8
1
  6
Continuous
 62
     7
100
AcDbCircle
 10
151.622079
 20
98.65816099999999
 30
0.0
 40
0.26
100
AcDbArc
 50
270.0
 51
90.0
  0
LINE
  5
293
330
1E
100
AcDbEntity
  8
1
  6
Continuous
 62
     7
100
AcDbLine
 10
149.542079
 20
98.91816099999999
 30
0.0
 11
151.622079
 21
98.91816099999999
 31
0.0
  0
LINE
  5
294
330
1E
100
AcDbEntity
  8
1
  6
Continuous
 62
     7
100
AcDbLine
 10
151.4920789999999
 20
104.248161
 30
0.0
 11
153.572079
 21
104.248161
 31
0.0
  0
LINE
  5
295
330
1E
100
AcDbEntity
  8
1
  6
Continuous
 62
     7
100
AcDbLine
 10
151.4920789999999
 20
104.248161
 30
0.0
 11
153.572079
 21
104.248161
 31
0.0
  0
LINE
  5
296
330
1E
100
AcDbEntity
  8
1
  6
Continuous
 62
     7
100
AcDbLine
 10
151.4920789999999
 20
104.248161
 30
0.0
 11
153.572079
 21
104.248161
 31
0.0
  0
LINE
  5
297
330
1E
100
AcDbEntity
  8
1
  6
Continuous
 62
     7
100
AcDbLine
 10
151.4920789999999
 20
104.248161
 30
0.0
 11
153.572079
 21
104.248161
 31
0.0
  0
ARC
  5
298
330
1E
100
AcDbEntity
  8
1
  6
Continuous
 62
     7
100
AcDbCircle
 10
151.622079
 20
102.5581609999999
 30
0.0
 40
0.26
100
AcDbArc
 50
270.0
 51
90.0
  0
LINE
  5
299
330
1E
100
AcDbEntity
  8
1
  6
Continuous
 62
     7
100
AcDbLine
 10
149.542079
 20
102.818161
 30
0.0
 11
151.622079
 21
102.818161
 31
0.0
  0
LINE
  5
29A
330
1E
100
AcDbEntity
  8
1
  6
Continuous
 62
     7
100
AcDbLine
 10
149.542079
 20
102.2981609999999
 30
0.0
 11
151.622079
 21
102.2981609999999
 31
0.0
  0
ARC
  5
29B
330
1E
100
AcDbEntity
  8
1
  6
Continuous
 62
     7
100
AcDbCircle
 10
149.542079
 20
102.5581609999999
 30
0.0
 40
0.26
100
AcDbArc
 50
90.0
 51
270.0
  0
ARC
  5
29C
330
1E
100
AcDbEntity
  8
1
  6
Continuous
 62
     7
100
AcDbCircle
 10
149.542079
 20
102.5581609999999
 30
0.0
 40
0.26
100
AcDbArc
 50
90.0
 51
270.0
  0
LINE
  5
29D
330
1E
100
AcDbEntity
  8
1
  6
Continuous
 62
     7
100
AcDbLine
 10
149.542079
 20
102.2981609999999
 30
0.0
 11
151.622079
 21
102.2981609999999
 31
0.0
  0
ARC
  5
29E
330
1E
100
AcDbEntity
  8
1
  6
Continuous
 62
     7
100
AcDbCircle
 10
153.572079
 20
104.5081609999999
 30
0.0
 40
0.26
100
AcDbArc
 50
270.0
 51
90.0
  0
ARC
  5
29F
330
1E
100
AcDbEntity
  8
1
  6
Continuous
 62
     7
100
AcDbCircle
 10
151.4920789999999
 20
104.5081609999999
 30
0.0
 40
0.26
100
AcDbArc
 50
90.0
 51
270.0
  0
ARC
  5
2A0
330
1E
100
AcDbEntity
  8
1
  6
Continuous
 62
     7
100
AcDbCircle
 10
151.4920789999999
 20
104.5081609999999
 30
0.0
 40
0.26
100
AcDbArc
 50
90.0
 51
270.0
  0
ARC
  5
2A1
330
1E
100
AcDbEntity
  8
1
  6
Continuous
 62
     7
100
AcDbCircle
 10
153.572079
 20
104.5081609999999
 30
0.0
 40
0.26
100
AcDbArc
 50
270.0
 51
90.0
  0
ARC
  5
2A2
330
1E
100
AcDbEntity
  8
1
  6
Continuous
 62
     7
100
AcDbCircle
 10
153.572079
 20
104.5081609999999
 30
0.0
 40
0.26
100
AcDbArc
 50
270.0
 51
90.0
  0
ARC
  5
2A3
330
1E
100
AcDbEntity
  8
1
  6
Continuous
 62
     7
100
AcDbCircle
 10
151.4920789999999
 20
104.5081609999999
 30
0.0
 40
0.26
100
AcDbArc
 50
90.0
 51
270.0
  0
ARC
  5
2A4
330
1E
100
AcDbEntity
  8
1
  6
Continuous
 62
     7
100
AcDbCircle
 10
151.4920789999999
 20
104.5081609999999
 30
0.0
 40
0.26
100
AcDbArc
 50
90.0
 51
270.0
  0
ARC
  5
2A5
330
1E
100
AcDbEntity
  8
1
  6
Continuous
 62
     7
100
AcDbCircle
 10
153.572079
 20
104.5081609999999
 30
0.0
 40
0.26
100
AcDbArc
 50
270.0
 51
90.0
  0
LINE
  5
2A6
330
1E
100
AcDbEntity
  8
1
  6
Continuous
 62
     7
100
AcDbLine
 10
149.542079
 20
98.398161
 30
0.0
 11
151.622079
 21
98.398161
 31
0.0
  0
ARC
  5
2A7
330
1E
100
AcDbEntity
  8
1
  6
Continuous
 62
     7
100
AcDbCircle
 10
149.542079
 20
98.65816099999999
 30
0.0
 40
0.26
100
AcDbArc
 50
90.0
 51
270.0
  0
ARC
  5
2A8
330
1E
100
AcDbEntity
  8
1
  6
Continuous
 62
     7
100
AcDbCircle
 10
149.542079
 20
98.65816099999999
 30
0.0
 40
0.26
100
AcDbArc
 50
90.0
 51
270.0
  0
LINE
  5
2A9
330
1E
100
AcDbEntity
  8
1
  6
Continuous
 62
     7
100
AcDbLine
 10
149.542079
 20
98.398161
 30
0.0
 11
151.622079
 21
98.398161
 31
0.0
  0
LINE
  5
2AA
330
1E
100
AcDbEntity
  8
1
  6
Continuous
 62
     7
100
AcDbLine
 10
149.542079
 20
98.91816099999999
 30
0.0
 11
151.622079
 21
98.91816099999999
 31
0.0
  0
ARC
  5
2AB
330
1E
100
AcDbEntity
  8
1
  6
Continuous
 62
     7
100
AcDbCircle
 10
151.622079
 20
98.65816099999999
 30
0.0
 40
0.26
100
AcDbArc
 50
270.0
 51
90.0
  0
LINE
  5
2AC
330
1E
100
AcDbEntity
  8
1
  6
Continuous
 62
     7
100
AcDbLine
 10
151.4920789999999
 20
100.348161
 30
0.0
 11
153.572079
 21
100.348161
 31
0.0
  0
LINE
  5
2AD
330
1E
100
AcDbEntity
  8
1
  6
Continuous
 62
     7
100
AcDbLine
 10
151.4920789999999
 20
100.348161
 30
0.0
 11
153.572079
 21
100.348161
 31
0.0
  0
LINE
  5
2AE
330
1E
100
AcDbEntity
  8
1
  6
Continuous
 62
     7
100
AcDbLine
 10
151.4920789999999
 20
100.348161
 30
0.0
 11
153.572079
 21
100.348161
 31
0.0
  0
LINE
  5
2AF
330
1E
100
AcDbEntity
  8
1
  6
Continuous
 62
     7
100
AcDbLine
 10
151.4920789999999
 20
100.348161
 30
0.0
 11
153.572079
 21
100.348161
 31
0.0
  0
ARC
  5
2B0
330
1E
100
AcDbEntity
  8
1
  6
Continuous
 62
     7
100
AcDbCircle
 10
153.572079
 20
100.608161
 30
0.0
 40
0.26
100
AcDbArc
 50
270.0
 51
90.0
  0
ARC
  5
2B1
330
1E
100
AcDbEntity
  8
1
  6
Continuous
 62
     7
100
AcDbCircle
 10
151.4920789999999
 20
100.608161
 30
0.0
 40
0.26
100
AcDbArc
 50
90.0
 51
270.0
  0
ARC
  5
2B2
330
1E
100
AcDbEntity
  8
1
  6
Continuous
 62
     7
100
AcDbCircle
 10
151.4920789999999
 20
100.608161
 30
0.0
 40
0.26
100
AcDbArc
 50
90.0
 51
270.0
  0
ARC
  5
2B3
330
1E
100
AcDbEntity
  8
1
  6
Continuous
 62
     7
100
AcDbCircle
 10
153.572079
 20
100.608161
 30
0.0
 40
0.26
100
AcDbArc
 50
270.0
 51
90.0
  0
ARC
  5
2B4
330
1E
100
AcDbEntity
  8
1
  6
Continuous
 62
     7
100
AcDbCircle
 10
153.572079
 20
100.608161
 30
0.0
 40
0.26
100
AcDbArc
 50
270.0
 51
90.0
  0
ARC
  5
2B5
330
1E
100
AcDbEntity
  8
1
  6
Continuous
 62
     7
100
AcDbCircle
 10
151.4920789999999
 20
100.608161
 30
0.0
 40
0.26
100
AcDbArc
 50
90.0
 51
270.0
  0
ARC
  5
2B6
330
1E
100
AcDbEntity
  8
1
  6
Continuous
 62
     7
100
AcDbCircle
 10
151.4920789999999
 20
100.608161
 30
0.0
 40
0.26
100
AcDbArc
 50
90.0
 51
270.0
  0
LINE
  5
2B7
330
1E
100
AcDbEntity
  8
1
  6
Continuous
 62
     7
100
AcDbLine
 10
155.392079
 20
108.668161
 30
0.0
 11
157.472079
 21
108.668161
 31
0.0
  0
ARC
  5
2B8
330
1E
100
AcDbEntity
  8
1
  6
Continuous
 62
     7
100
AcDbCircle
 10
155.5220789999999
 20
106.458161
 30
0.0
 40
0.26
100
AcDbArc
 50
270.0
 51
90.0
  0
LINE
  5
2B9
330
1E
100
AcDbEntity
  8
1
  6
Continuous
 62
     7
100
AcDbLine
 10
153.442079
 20
106.718161
 30
0.0
 11
155.5220789999999
 21
106.718161
 31
0.0
  0
LINE
  5
2BA
330
1E
100
AcDbEntity
  8
1
  6
Continuous
 62
     7
100
AcDbLine
 10
153.442079
 20
106.198161
 30
0.0
 11
155.5220789999999
 21
106.198161
 31
0.0
  0
ARC
  5
2BB
330
1E
100
AcDbEntity
  8
1
  6
Continuous
 62
     7
100
AcDbCircle
 10
153.442079
 20
106.458161
 30
0.0
 40
0.26
100
AcDbArc
 50
90.0
 51
270.0
  0
ARC
  5
2BC
330
1E
100
AcDbEntity
  8
1
  6
Continuous
 62
     7
100
AcDbCircle
 10
153.442079
 20
106.458161
 30
0.0
 40
0.26
100
AcDbArc
 50
90.0
 51
270.0
  0
LINE
  5
2BD
330
1E
100
AcDbEntity
  8
1
  6
Continuous
 62
     7
100
AcDbLine
 10
153.442079
 20
106.198161
 30
0.0
 11
155.5220789999999
 21
106.198161
 31
0.0
  0
LINE
  5
2BE
330
1E
100
AcDbEntity
  8
1
  6
Continuous
 62
     7
100
AcDbLine
 10
153.442079
 20
106.718161
 30
0.0
 11
155.5220789999999
 21
106.718161
 31
0.0
  0
ARC
  5
2BF
330
1E
100
AcDbEntity
  8
1
  6
Continuous
 62
     7
100
AcDbCircle
 10
155.5220789999999
 20
106.458161
 30
0.0
 40
0.26
100
AcDbArc
 50
270.0
 51
90.0
  0
ARC
  5
2C0
330
1E
100
AcDbEntity
  8
1
  6
Continuous
 62
     7
100
AcDbCircle
 10
155.5220789999999
 20
106.458161
 30
0.0
 40
0.26
100
AcDbArc
 50
270.0
 51
90.0
  0
LINE
  5
2C1
330
1E
100
AcDbEntity
  8
1
  6
Continuous
 62
     7
100
AcDbLine
 10
153.442079
 20
106.718161
 30
0.0
 11
155.5220789999999
 21
106.718161
 31
0.0
  0
LINE
  5
2C2
330
1E
100
AcDbEntity
  8
1
  6
Continuous
 62
     7
100
AcDbLine
 10
155.392079
 20
104.7681609999999
 30
0.0
 11
157.472079
 21
104.7681609999999
 31
0.0
  0
LINE
  5
2C3
330
1E
100
AcDbEntity
  8
1
  6
Continuous
 62
     7
100
AcDbLine
 10
155.392079
 20
104.7681609999999
 30
0.0
 11
157.472079
 21
104.7681609999999
 31
0.0
  0
LINE
  5
2C4
330
1E
100
AcDbEntity
  8
1
  6
Continuous
 62
     7
100
AcDbLine
 10
155.392079
 20
104.7681609999999
 30
0.0
 11
157.472079
 21
104.7681609999999
 31
0.0
  0
LINE
  5
2C5
330
1E
100
AcDbEntity
  8
1
  6
Continuous
 62
     7
100
AcDbLine
 10
155.392079
 20
104.7681609999999
 30
0.0
 11
157.472079
 21
104.7681609999999
 31
0.0
  0
LINE
  5
2C6
330
1E
100
AcDbEntity
  8
1
  6
Continuous
 62
     7
100
AcDbLine
 10
155.392079
 20
112.5681609999999
 30
0.0
 11
157.472079
 21
112.5681609999999
 31
0.0
  0
LINE
  5
2C7
330
1E
100
AcDbEntity
  8
1
  6
Continuous
 62
     7
100
AcDbLine
 10
155.392079
 20
112.5681609999999
 30
0.0
 11
157.472079
 21
112.5681609999999
 31
0.0
  0
LINE
  5
2C8
330
1E
100
AcDbEntity
  8
1
  6
Continuous
 62
     7
100
AcDbLine
 10
155.392079
 20
112.5681609999999
 30
0.0
 11
157.472079
 21
112.5681609999999
 31
0.0
  0
LINE
  5
2C9
330
1E
100
AcDbEntity
  8
1
  6
Continuous
 62
     7
100
AcDbLine
 10
155.392079
 20
112.5681609999999
 30
0.0
 11
157.472079
 21
112.5681609999999
 31
0.0
  0
LINE
  5
2CA
330
1E
100
AcDbEntity
  8
1
  6
Continuous
 62
     7
100
AcDbLine
 10
153.442079
 20
106.198161
 30
0.0
 11
155.5220789999999
 21
106.198161
 31
0.0
  0
ARC
  5
2CB
330
1E
100
AcDbEntity
  8
1
  6
Continuous
 62
     7
100
AcDbCircle
 10
153.442079
 20
106.458161
 30
0.0
 40
0.26
100
AcDbArc
 50
90.0
 51
270.0
  0
ARC
  5
2CC
330
1E
100
AcDbEntity
  8
1
  6
Continuous
 62
     7
100
AcDbCircle
 10
153.442079
 20
106.458161
 30
0.0
 40
0.26
100
AcDbArc
 50
90.0
 51
270.0
  0
LINE
  5
2CD
330
1E
100
AcDbEntity
  8
1
  6
Continuous
 62
     7
100
AcDbLine
 10
153.442079
 20
106.198161
 30
0.0
 11
155.5220789999999
 21
106.198161
 31
0.0
  0
LINE
  5
2CE
330
1E
100
AcDbEntity
  8
1
  6
Continuous
 62
     7
100
AcDbLine
 10
153.442079
 20
106.718161
 30
0.0
 11
155.5220789999999
 21
106.718161
 31
0.0
  0
ARC
  5
2CF
330
1E
100
AcDbEntity
  8
1
  6
Continuous
 62
     7
100
AcDbCircle
 10
155.5220789999999
 20
106.458161
 30
0.0
 40
0.26
100
AcDbArc
 50
270.0
 51
90.0
  0
LINE
  5
2D0
330
1E
100
AcDbEntity
  8
1
  6
Continuous
 62
     7
100
AcDbLine
 10
155.392079
 20
108.148161
 30
0.0
 11
157.472079
 21
108.148161
 31
0.0
  0
LINE
  5
2D1
330
1E
100
AcDbEntity
  8
1
  6
Continuous
 62
     7
100
AcDbLine
 10
155.392079
 20
108.148161
 30
0.0
 11
157.472079
 21
108.148161
 31
0.0
  0
LINE
  5
2D2
330
1E
100
AcDbEntity
  8
1
  6
Continuous
 62
     7
100
AcDbLine
 10
155.392079
 20
108.148161
 30
0.0
 11
157.472079
 21
108.148161
 31
0.0
  0
LINE
  5
2D3
330
1E
100
AcDbEntity
  8
1
  6
Continuous
 62
     7
100
AcDbLine
 10
155.392079
 20
108.148161
 30
0.0
 11
157.472079
 21
108.148161
 31
0.0
  0
ARC
  5
2D4
330
1E
100
AcDbEntity
  8
1
  6
Continuous
 62
     7
100
AcDbCircle
 10
157.472079
 20
108.408161
 30
0.0
 40
0.26
100
AcDbArc
 50
270.0
 51
90.0
  0
ARC
  5
2D5
330
1E
100
AcDbEntity
  8
1
  6
Continuous
 62
     7
100
AcDbCircle
 10
155.392079
 20
108.408161
 30
0.0
 40
0.26
100
AcDbArc
 50
90.0
 51
270.0
  0
ARC
  5
2D6
330
1E
100
AcDbEntity
  8
1
  6
Continuous
 62
     7
100
AcDbCircle
 10
155.392079
 20
108.408161
 30
0.0
 40
0.26
100
AcDbArc
 50
90.0
 51
270.0
  0
ARC
  5
2D7
330
1E
100
AcDbEntity
  8
1
  6
Continuous
 62
     7
100
AcDbCircle
 10
157.472079
 20
108.408161
 30
0.0
 40
0.26
100
AcDbArc
 50
270.0
 51
90.0
  0
ARC
  5
2D8
330
1E
100
AcDbEntity
  8
1
  6
Continuous
 62
     7
100
AcDbCircle
 10
157.472079
 20
108.408161
 30
0.0
 40
0.26
100
AcDbArc
 50
270.0
 51
90.0
  0
ARC
  5
2D9
330
1E
100
AcDbEntity
  8
1
  6
Continuous
 62
     7
100
AcDbCircle
 10
155.392079
 20
108.408161
 30
0.0
 40
0.26
100
AcDbArc
 50
90.0
 51
270.0
  0
ARC
  5
2DA
330
1E
100
AcDbEntity
  8
1
  6
Continuous
 62
     7
100
AcDbCircle
 10
155.392079
 20
108.408161
 30
0.0
 40
0.26
100
AcDbArc
 50
90.0
 51
270.0
  0
ARC
  5
2DB
330
1E
100
AcDbEntity
  8
1
  6
Continuous
 62
     7
100
AcDbCircle
 10
157.472079
 20
108.408161
 30
0.0
 40
0.26
100
AcDbArc
 50
270.0
 51
90.0
  0
LINE
  5
2DC
330
1E
100
AcDbEntity
  8
1
  6
Continuous
 62
     7
100
AcDbLine
 10
155.392079
 20
108.668161
 30
0.0
 11
157.472079
 21
108.668161
 31
0.0
  0
LINE
  5
2DD
330
1E
100
AcDbEntity
  8
1
  6
Continuous
 62
     7
100
AcDbLine
 10
155.392079
 20
108.668161
 30
0.0
 11
157.472079
 21
108.668161
 31
0.0
  0
LINE
  5
2DE
330
1E
100
AcDbEntity
  8
1
  6
Continuous
 62
     7
100
AcDbLine
 10
155.392079
 20
108.668161
 30
0.0
 11
157.472079
 21
108.668161
 31
0.0
  0
ARC
  5
2DF
330
1E
100
AcDbEntity
  8
1
  6
Continuous
 62
     7
100
AcDbCircle
 10
157.472079
 20
112.308161
 30
0.0
 40
0.26
100
AcDbArc
 50
270.0
 51
90.0
  0
ARC
  5
2E0
330
1E
100
AcDbEntity
  8
1
  6
Continuous
 62
     7
100
AcDbCircle
 10
157.472079
 20
112.308161
 30
0.0
 40
0.26
100
AcDbArc
 50
270.0
 51
90.0
  0
ARC
  5
2E1
330
1E
100
AcDbEntity
  8
1
  6
Continuous
 62
     7
100
AcDbCircle
 10
155.392079
 20
112.308161
 30
0.0
 40
0.26
100
AcDbArc
 50
90.0
 51
270.0
  0
ARC
  5
2E2
330
1E
100
AcDbEntity
  8
1
  6
Continuous
 62
     7
100
AcDbCircle
 10
155.392079
 20
112.308161
 30
0.0
 40
0.26
100
AcDbArc
 50
90.0
 51
270.0
  0
ARC
  5
2E3
330
1E
100
AcDbEntity
  8
1
  6
Continuous
 62
     7
100
AcDbCircle
 10
157.472079
 20
112.308161
 30
0.0
 40
0.26
100
AcDbArc
 50
270.0
 51
90.0
  0
LINE
  5
2E4
330
1E
100
AcDbEntity
  8
1
  6
Continuous
 62
     7
100
AcDbLine
 10
155.392079
 20
112.048161
 30
0.0
 11
157.472079
 21
112.048161
 31
0.0
  0
LINE
  5
2E5
330
1E
100
AcDbEntity
  8
1
  6
Continuous
 62
     7
100
AcDbLine
 10
155.392079
 20
112.048161
 30
0.0
 11
157.472079
 21
112.048161
 31
0.0
  0
LINE
  5
2E6
330
1E
100
AcDbEntity
  8
1
  6
Continuous
 62
     7
100
AcDbLine
 10
155.392079
 20
112.048161
 30
0.0
 11
157.472079
 21
112.048161
 31
0.0
  0
LINE
  5
2E7
330
1E
100
AcDbEntity
  8
1
  6
Continuous
 62
     7
100
AcDbLine
 10
155.392079
 20
112.048161
 30
0.0
 11
157.472079
 21
112.048161
 31
0.0
  0
ARC
  5
2E8
330
1E
100
AcDbEntity
  8
1
  6
Continuous
 62
     7
100
AcDbCircle
 10
155.5220789999999
 20
110.358161
 30
0.0
 40
0.26
100
AcDbArc
 50
270.0
 51
90.0
  0
LINE
  5
2E9
330
1E
100
AcDbEntity
  8
1
  6
Continuous
 62
     7
100
AcDbLine
 10
153.442079
 20
110.618161
 30
0.0
 11
155.5220789999999
 21
110.618161
 31
0.0
  0
LINE
  5
2EA
330
1E
100
AcDbEntity
  8
1
  6
Continuous
 62
     7
100
AcDbLine
 10
153.442079
 20
110.098161
 30
0.0
 11
155.5220789999999
 21
110.098161
 31
0.0
  0
ARC
  5
2EB
330
1E
100
AcDbEntity
  8
1
  6
Continuous
 62
     7
100
AcDbCircle
 10
153.442079
 20
110.358161
 30
0.0
 40
0.26
100
AcDbArc
 50
90.0
 51
270.0
  0
ARC
  5
2EC
330
1E
100
AcDbEntity
  8
1
  6
Continuous
 62
     7
100
AcDbCircle
 10
153.442079
 20
110.358161
 30
0.0
 40
0.26
100
AcDbArc
 50
90.0
 51
270.0
  0
LINE
  5
2ED
330
1E
100
AcDbEntity
  8
1
  6
Continuous
 62
     7
100
AcDbLine
 10
153.442079
 20
110.098161
 30
0.0
 11
155.5220789999999
 21
110.098161
 31
0.0
  0
LINE
  5
2EE
330
1E
100
AcDbEntity
  8
1
  6
Continuous
 62
     7
100
AcDbLine
 10
153.442079
 20
110.618161
 30
0.0
 11
155.5220789999999
 21
110.618161
 31
0.0
  0
ARC
  5
2EF
330
1E
100
AcDbEntity
  8
1
  6
Continuous
 62
     7
100
AcDbCircle
 10
155.5220789999999
 20
110.358161
 30
0.0
 40
0.26
100
AcDbArc
 50
270.0
 51
90.0
  0
ARC
  5
2F0
330
1E
100
AcDbEntity
  8
1
  6
Continuous
 62
     7
100
AcDbCircle
 10
155.5220789999999
 20
110.358161
 30
0.0
 40
0.26
100
AcDbArc
 50
270.0
 51
90.0
  0
LINE
  5
2F1
330
1E
100
AcDbEntity
  8
1
  6
Continuous
 62
     7
100
AcDbLine
 10
153.442079
 20
110.618161
 30
0.0
 11
155.5220789999999
 21
110.618161
 31
0.0
  0
LINE
  5
2F2
330
1E
100
AcDbEntity
  8
1
  6
Continuous
 62
     7
100
AcDbLine
 10
153.442079
 20
110.098161
 30
0.0
 11
155.5220789999999
 21
110.098161
 31
0.0
  0
ARC
  5
2F3
330
1E
100
AcDbEntity
  8
1
  6
Continuous
 62
     7
100
AcDbCircle
 10
153.442079
 20
110.358161
 30
0.0
 40
0.26
100
AcDbArc
 50
90.0
 51
270.0
  0
ARC
  5
2F4
330
1E
100
AcDbEntity
  8
1
  6
Continuous
 62
     7
100
AcDbCircle
 10
153.442079
 20
110.358161
 30
0.0
 40
0.26
100
AcDbArc
 50
90.0
 51
270.0
  0
LINE
  5
2F5
330
1E
100
AcDbEntity
  8
1
  6
Continuous
 62
     7
100
AcDbLine
 10
153.442079
 20
110.098161
 30
0.0
 11
155.5220789999999
 21
110.098161
 31
0.0
  0
LINE
  5
2F6
330
1E
100
AcDbEntity
  8
1
  6
Continuous
 62
     7
100
AcDbLine
 10
153.442079
 20
110.618161
 30
0.0
 11
155.5220789999999
 21
110.618161
 31
0.0
  0
ARC
  5
2F7
330
1E
100
AcDbEntity
  8
1
  6
Continuous
 62
     7
100
AcDbCircle
 10
155.5220789999999
 20
110.358161
 30
0.0
 40
0.26
100
AcDbArc
 50
270.0
 51
90.0
  0
ARC
  5
2F8
330
1E
100
AcDbEntity
  8
1
  6
Continuous
 62
     7
100
AcDbCircle
 10
157.472079
 20
116.2081609999999
 30
0.0
 40
0.26
100
AcDbArc
 50
270.0
 51
90.0
  0
ARC
  5
2F9
330
1E
100
AcDbEntity
  8
1
  6
Continuous
 62
     7
100
AcDbCircle
 10
155.392079
 20
116.2081609999999
 30
0.0
 40
0.26
100
AcDbArc
 50
90.0
 51
270.0
  0
ARC
  5
2FA
330
1E
100
AcDbEntity
  8
1
  6
Continuous
 62
     7
100
AcDbCircle
 10
155.392079
 20
116.2081609999999
 30
0.0
 40
0.26
100
AcDbArc
 50
90.0
 51
270.0
  0
ARC
  5
2FB
330
1E
100
AcDbEntity
  8
1
  6
Continuous
 62
     7
100
AcDbCircle
 10
157.472079
 20
116.2081609999999
 30
0.0
 40
0.26
100
AcDbArc
 50
270.0
 51
90.0
  0
ARC
  5
2FC
330
1E
100
AcDbEntity
  8
1
  6
Continuous
 62
     7
100
AcDbCircle
 10
157.472079
 20
116.2081609999999
 30
0.0
 40
0.26
100
AcDbArc
 50
270.0
 51
90.0
  0
ARC
  5
2FD
330
1E
100
AcDbEntity
  8
1
  6
Continuous
 62
     7
100
AcDbCircle
 10
155.392079
 20
116.2081609999999
 30
0.0
 40
0.26
100
AcDbArc
 50
90.0
 51
270.0
  0
ARC
  5
2FE
330
1E
100
AcDbEntity
  8
1
  6
Continuous
 62
     7
100
AcDbCircle
 10
155.392079
 20
116.2081609999999
 30
0.0
 40
0.26
100
AcDbArc
 50
90.0
 51
270.0
  0
ARC
  5
2FF
330
1E
100
AcDbEntity
  8
1
  6
Continuous
 62
     7
100
AcDbCircle
 10
157.472079
 20
116.2081609999999
 30
0.0
 40
0.26
100
AcDbArc
 50
270.0
 51
90.0
  0
LINE
  5
300
330
1E
100
AcDbEntity
  8
1
  6
Continuous
 62
     7
100
AcDbLine
 10
155.392079
 20
116.468161
 30
0.0
 11
157.472079
 21
116.468161
 31
0.0
  0
LINE
  5
301
330
1E
100
AcDbEntity
  8
1
  6
Continuous
 62
     7
100
AcDbLine
 10
155.392079
 20
116.468161
 30
0.0
 11
157.472079
 21
116.468161
 31
0.0
  0
LINE
  5
302
330
1E
100
AcDbEntity
  8
1
  6
Continuous
 62
     7
100
AcDbLine
 10
155.392079
 20
116.468161
 30
0.0
 11
157.472079
 21
116.468161
 31
0.0
  0
LINE
  5
303
330
1E
100
AcDbEntity
  8
1
  6
Continuous
 62
     7
100
AcDbLine
 10
155.392079
 20
116.468161
 30
0.0
 11
157.472079
 21
116.468161
 31
0.0
  0
ARC
  5
304
330
1E
100
AcDbEntity
  8
1
  6
Continuous
 62
     7
100
AcDbCircle
 10
155.5220789999999
 20
114.258161
 30
0.0
 40
0.26
100
AcDbArc
 50
270.0
 51
90.0
  0
LINE
  5
305
330
1E
100
AcDbEntity
  8
1
  6
Continuous
 62
     7
100
AcDbLine
 10
153.442079
 20
114.518161
 30
0.0
 11
155.5220789999999
 21
114.518161
 31
0.0
  0
LINE
  5
306
330
1E
100
AcDbEntity
  8
1
  6
Continuous
 62
     7
100
AcDbLine
 10
153.442079
 20
113.998161
 30
0.0
 11
155.5220789999999
 21
113.998161
 31
0.0
  0
ARC
  5
307
330
1E
100
AcDbEntity
  8
1
  6
Continuous
 62
     7
100
AcDbCircle
 10
153.442079
 20
114.258161
 30
0.0
 40
0.26
100
AcDbArc
 50
90.0
 51
270.0
  0
ARC
  5
308
330
1E
100
AcDbEntity
  8
1
  6
Continuous
 62
     7
100
AcDbCircle
 10
153.442079
 20
114.258161
 30
0.0
 40
0.26
100
AcDbArc
 50
90.0
 51
270.0
  0
LINE
  5
309
330
1E
100
AcDbEntity
  8
1
  6
Continuous
 62
     7
100
AcDbLine
 10
153.442079
 20
113.998161
 30
0.0
 11
155.5220789999999
 21
113.998161
 31
0.0
  0
LINE
  5
30A
330
1E
100
AcDbEntity
  8
1
  6
Continuous
 62
     7
100
AcDbLine
 10
153.442079
 20
114.518161
 30
0.0
 11
155.5220789999999
 21
114.518161
 31
0.0
  0
ARC
  5
30B
330
1E
100
AcDbEntity
  8
1
  6
Continuous
 62
     7
100
AcDbCircle
 10
155.5220789999999
 20
114.258161
 30
0.0
 40
0.26
100
AcDbArc
 50
270.0
 51
90.0
  0
ARC
  5
30C
330
1E
100
AcDbEntity
  8
1
  6
Continuous
 62
     7
100
AcDbCircle
 10
155.5220789999999
 20
114.258161
 30
0.0
 40
0.26
100
AcDbArc
 50
270.0
 51
90.0
  0
LINE
  5
30D
330
1E
100
AcDbEntity
  8
1
  6
Continuous
 62
     7
100
AcDbLine
 10
153.442079
 20
114.518161
 30
0.0
 11
155.5220789999999
 21
114.518161
 31
0.0
  0
ARC
  5
30E
330
1E
100
AcDbEntity
  8
1
  6
Continuous
 62
     7
100
AcDbCircle
 10
157.472079
 20
112.308161
 30
0.0
 40
0.26
100
AcDbArc
 50
270.0
 51
90.0
  0
ARC
  5
30F
330
1E
100
AcDbEntity
  8
1
  6
Continuous
 62
     7
100
AcDbCircle
 10
155.392079
 20
112.308161
 30
0.0
 40
0.26
100
AcDbArc
 50
90.0
 51
270.0
  0
ARC
  5
310
330
1E
100
AcDbEntity
  8
1
  6
Continuous
 62
     7
100
AcDbCircle
 10
155.392079
 20
112.308161
 30
0.0
 40
0.26
100
AcDbArc
 50
90.0
 51
270.0
  0
LINE
  5
311
330
1E
100
AcDbEntity
  8
1
  6
Continuous
 62
     7
100
AcDbLine
 10
153.442079
 20
117.898161
 30
0.0
 11
155.5220789999999
 21
117.898161
 31
0.0
  0
LINE
  5
312
330
1E
100
AcDbEntity
  8
1
  6
Continuous
 62
     7
100
AcDbLine
 10
153.442079
 20
118.418161
 30
0.0
 11
155.5220789999999
 21
118.418161
 31
0.0
  0
ARC
  5
313
330
1E
100
AcDbEntity
  8
1
  6
Continuous
 62
     7
100
AcDbCircle
 10
155.5220789999999
 20
118.158161
 30
0.0
 40
0.26
100
AcDbArc
 50
270.0
 51
90.0
  0
ARC
  5
314
330
1E
100
AcDbEntity
  8
1
  6
Continuous
 62
     7
100
AcDbCircle
 10
155.5220789999999
 20
118.158161
 30
0.0
 40
0.26
100
AcDbArc
 50
270.0
 51
90.0
  0
LINE
  5
315
330
1E
100
AcDbEntity
  8
1
  6
Continuous
 62
     7
100
AcDbLine
 10
153.442079
 20
118.418161
 30
0.0
 11
155.5220789999999
 21
118.418161
 31
0.0
  0
LINE
  5
316
330
1E
100
AcDbEntity
  8
1
  6
Continuous
 62
     7
100
AcDbLine
 10
153.442079
 20
117.898161
 30
0.0
 11
155.5220789999999
 21
117.898161
 31
0.0
  0
ARC
  5
317
330
1E
100
AcDbEntity
  8
1
  6
Continuous
 62
     7
100
AcDbCircle
 10
153.442079
 20
118.158161
 30
0.0
 40
0.26
100
AcDbArc
 50
90.0
 51
270.0
  0
ARC
  5
318
330
1E
100
AcDbEntity
  8
1
  6
Continuous
 62
     7
100
AcDbCircle
 10
153.442079
 20
118.158161
 30
0.0
 40
0.26
100
AcDbArc
 50
90.0
 51
270.0
  0
LINE
  5
319
330
1E
100
AcDbEntity
  8
1
  6
Continuous
 62
     7
100
AcDbLine
 10
153.442079
 20
117.898161
 30
0.0
 11
155.5220789999999
 21
117.898161
 31
0.0
  0
LINE
  5
31A
330
1E
100
AcDbEntity
  8
1
  6
Continuous
 62
     7
100
AcDbLine
 10
153.442079
 20
118.418161
 30
0.0
 11
155.5220789999999
 21
118.418161
 31
0.0
  0
ARC
  5
31B
330
1E
100
AcDbEntity
  8
1
  6
Continuous
 62
     7
100
AcDbCircle
 10
155.5220789999999
 20
118.158161
 30
0.0
 40
0.26
100
AcDbArc
 50
270.0
 51
90.0
  0
LINE
  5
31C
330
1E
100
AcDbEntity
  8
1
  6
Continuous
 62
     7
100
AcDbLine
 10
155.392079
 20
120.368161
 30
0.0
 11
157.472079
 21
120.368161
 31
0.0
  0
LINE
  5
31D
330
1E
100
AcDbEntity
  8
1
  6
Continuous
 62
     7
100
AcDbLine
 10
155.392079
 20
120.368161
 30
0.0
 11
157.472079
 21
120.368161
 31
0.0
  0
LINE
  5
31E
330
1E
100
AcDbEntity
  8
1
  6
Continuous
 62
     7
100
AcDbLine
 10
155.392079
 20
120.368161
 30
0.0
 11
157.472079
 21
120.368161
 31
0.0
  0
LINE
  5
31F
330
1E
100
AcDbEntity
  8
1
  6
Continuous
 62
     7
100
AcDbLine
 10
155.392079
 20
120.368161
 30
0.0
 11
157.472079
 21
120.368161
 31
0.0
  0
LINE
  5
320
330
1E
100
AcDbEntity
  8
1
  6
Continuous
 62
     7
100
AcDbLine
 10
153.442079
 20
113.998161
 30
0.0
 11
155.5220789999999
 21
113.998161
 31
0.0
  0
ARC
  5
321
330
1E
100
AcDbEntity
  8
1
  6
Continuous
 62
     7
100
AcDbCircle
 10
153.442079
 20
114.258161
 30
0.0
 40
0.26
100
AcDbArc
 50
90.0
 51
270.0
  0
ARC
  5
322
330
1E
100
AcDbEntity
  8
1
  6
Continuous
 62
     7
100
AcDbCircle
 10
153.442079
 20
114.258161
 30
0.0
 40
0.26
100
AcDbArc
 50
90.0
 51
270.0
  0
LINE
  5
323
330
1E
100
AcDbEntity
  8
1
  6
Continuous
 62
     7
100
AcDbLine
 10
153.442079
 20
113.998161
 30
0.0
 11
155.5220789999999
 21
113.998161
 31
0.0
  0
LINE
  5
324
330
1E
100
AcDbEntity
  8
1
  6
Continuous
 62
     7
100
AcDbLine
 10
153.442079
 20
114.518161
 30
0.0
 11
155.5220789999999
 21
114.518161
 31
0.0
  0
ARC
  5
325
330
1E
100
AcDbEntity
  8
1
  6
Continuous
 62
     7
100
AcDbCircle
 10
155.5220789999999
 20
114.258161
 30
0.0
 40
0.26
100
AcDbArc
 50
270.0
 51
90.0
  0
LINE
  5
326
330
1E
100
AcDbEntity
  8
1
  6
Continuous
 62
     7
100
AcDbLine
 10
155.392079
 20
115.948161
 30
0.0
 11
157.472079
 21
115.948161
 31
0.0
  0
LINE
  5
327
330
1E
100
AcDbEntity
  8
1
  6
Continuous
 62
     7
100
AcDbLine
 10
155.392079
 20
115.948161
 30
0.0
 11
157.472079
 21
115.948161
 31
0.0
  0
LINE
  5
328
330
1E
100
AcDbEntity
  8
1
  6
Continuous
 62
     7
100
AcDbLine
 10
155.392079
 20
115.948161
 30
0.0
 11
157.472079
 21
115.948161
 31
0.0
  0
LINE
  5
329
330
1E
100
AcDbEntity
  8
1
  6
Continuous
 62
     7
100
AcDbLine
 10
155.392079
 20
115.948161
 30
0.0
 11
157.472079
 21
115.948161
 31
0.0
  0
ARC
  5
32A
330
1E
100
AcDbEntity
  8
1
  6
Continuous
 62
     7
100
AcDbCircle
 10
157.472079
 20
124.008161
 30
0.0
 40
0.26
100
AcDbArc
 50
270.0
 51
90.0
  0
ARC
  5
32B
330
1E
100
AcDbEntity
  8
1
  6
Continuous
 62
     7
100
AcDbCircle
 10
155.392079
 20
124.008161
 30
0.0
 40
0.26
100
AcDbArc
 50
90.0
 51
270.0
  0
ARC
  5
32C
330
1E
100
AcDbEntity
  8
1
  6
Continuous
 62
     7
100
AcDbCircle
 10
155.392079
 20
124.008161
 30
0.0
 40
0.26
100
AcDbArc
 50
90.0
 51
270.0
  0
ARC
  5
32D
330
1E
100
AcDbEntity
  8
1
  6
Continuous
 62
     7
100
AcDbCircle
 10
157.472079
 20
124.008161
 30
0.0
 40
0.26
100
AcDbArc
 50
270.0
 51
90.0
  0
LINE
  5
32E
330
1E
100
AcDbEntity
  8
1
  6
Continuous
 62
     7
100
AcDbLine
 10
155.392079
 20
124.2681609999999
 30
0.0
 11
157.472079
 21
124.2681609999999
 31
0.0
  0
LINE
  5
32F
330
1E
100
AcDbEntity
  8
1
  6
Continuous
 62
     7
100
AcDbLine
 10
155.392079
 20
124.2681609999999
 30
0.0
 11
157.472079
 21
124.2681609999999
 31
0.0
  0
LINE
  5
330
330
1E
100
AcDbEntity
  8
1
  6
Continuous
 62
     7
100
AcDbLine
 10
155.392079
 20
124.2681609999999
 30
0.0
 11
157.472079
 21
124.2681609999999
 31
0.0
  0
LINE
  5
331
330
1E
100
AcDbEntity
  8
1
  6
Continuous
 62
     7
100
AcDbLine
 10
155.392079
 20
124.2681609999999
 30
0.0
 11
157.472079
 21
124.2681609999999
 31
0.0
  0
ARC
  5
332
330
1E
100
AcDbEntity
  8
1
  6
Continuous
 62
     7
100
AcDbCircle
 10
157.472079
 20
120.108161
 30
0.0
 40
0.26
100
AcDbArc
 50
270.0
 51
90.0
  0
ARC
  5
333
330
1E
100
AcDbEntity
  8
1
  6
Continuous
 62
     7
100
AcDbCircle
 10
155.392079
 20
120.108161
 30
0.0
 40
0.26
100
AcDbArc
 50
90.0
 51
270.0
  0
ARC
  5
334
330
1E
100
AcDbEntity
  8
1
  6
Continuous
 62
     7
100
AcDbCircle
 10
155.392079
 20
120.108161
 30
0.0
 40
0.26
100
AcDbArc
 50
90.0
 51
270.0
  0
ARC
  5
335
330
1E
100
AcDbEntity
  8
1
  6
Continuous
 62
     7
100
AcDbCircle
 10
157.472079
 20
120.108161
 30
0.0
 40
0.26
100
AcDbArc
 50
270.0
 51
90.0
  0
ARC
  5
336
330
1E
100
AcDbEntity
  8
1
  6
Continuous
 62
     7
100
AcDbCircle
 10
157.472079
 20
120.108161
 30
0.0
 40
0.26
100
AcDbArc
 50
270.0
 51
90.0
  0
ARC
  5
337
330
1E
100
AcDbEntity
  8
1
  6
Continuous
 62
     7
100
AcDbCircle
 10
155.392079
 20
120.108161
 30
0.0
 40
0.26
100
AcDbArc
 50
90.0
 51
270.0
  0
ARC
  5
338
330
1E
100
AcDbEntity
  8
1
  6
Continuous
 62
     7
100
AcDbCircle
 10
155.392079
 20
120.108161
 30
0.0
 40
0.26
100
AcDbArc
 50
90.0
 51
270.0
  0
ARC
  5
339
330
1E
100
AcDbEntity
  8
1
  6
Continuous
 62
     7
100
AcDbCircle
 10
157.472079
 20
120.108161
 30
0.0
 40
0.26
100
AcDbArc
 50
270.0
 51
90.0
  0
LINE
  5
33A
330
1E
100
AcDbEntity
  8
1
  6
Continuous
 62
     7
100
AcDbLine
 10
155.392079
 20
119.8481609999999
 30
0.0
 11
157.472079
 21
119.8481609999999
 31
0.0
  0
LINE
  5
33B
330
1E
100
AcDbEntity
  8
1
  6
Continuous
 62
     7
100
AcDbLine
 10
155.392079
 20
119.8481609999999
 30
0.0
 11
157.472079
 21
119.8481609999999
 31
0.0
  0
LINE
  5
33C
330
1E
100
AcDbEntity
  8
1
  6
Continuous
 62
     7
100
AcDbLine
 10
155.392079
 20
119.8481609999999
 30
0.0
 11
157.472079
 21
119.8481609999999
 31
0.0
  0
LINE
  5
33D
330
1E
100
AcDbEntity
  8
1
  6
Continuous
 62
     7
100
AcDbLine
 10
155.392079
 20
119.8481609999999
 30
0.0
 11
157.472079
 21
119.8481609999999
 31
0.0
  0
ARC
  5
33E
330
1E
100
AcDbEntity
  8
1
  6
Continuous
 62
     7
100
AcDbCircle
 10
155.5220789999999
 20
118.158161
 30
0.0
 40
0.26
100
AcDbArc
 50
270.0
 51
90.0
  0
LINE
  5
33F
330
1E
100
AcDbEntity
  8
1
  6
Continuous
 62
     7
100
AcDbLine
 10
153.442079
 20
118.418161
 30
0.0
 11
155.5220789999999
 21
118.418161
 31
0.0
  0
LINE
  5
340
330
1E
100
AcDbEntity
  8
1
  6
Continuous
 62
     7
100
AcDbLine
 10
153.442079
 20
117.898161
 30
0.0
 11
155.5220789999999
 21
117.898161
 31
0.0
  0
ARC
  5
341
330
1E
100
AcDbEntity
  8
1
  6
Continuous
 62
     7
100
AcDbCircle
 10
153.442079
 20
118.158161
 30
0.0
 40
0.26
100
AcDbArc
 50
90.0
 51
270.0
  0
ARC
  5
342
330
1E
100
AcDbEntity
  8
1
  6
Continuous
 62
     7
100
AcDbCircle
 10
153.442079
 20
118.158161
 30
0.0
 40
0.26
100
AcDbArc
 50
90.0
 51
270.0
  0
LINE
  5
343
330
1E
100
AcDbEntity
  8
1
  6
Continuous
 62
     7
100
AcDbLine
 10
153.442079
 20
125.698161
 30
0.0
 11
155.5220789999999
 21
125.698161
 31
0.0
  0
LINE
  5
344
330
1E
100
AcDbEntity
  8
1
  6
Continuous
 62
     7
100
AcDbLine
 10
153.442079
 20
121.798161
 30
0.0
 11
155.5220789999999
 21
121.798161
 31
0.0
  0
ARC
  5
345
330
1E
100
AcDbEntity
  8
1
  6
Continuous
 62
     7
100
AcDbCircle
 10
153.442079
 20
122.058161
 30
0.0
 40
0.26
100
AcDbArc
 50
90.0
 51
270.0
  0
ARC
  5
346
330
1E
100
AcDbEntity
  8
1
  6
Continuous
 62
     7
100
AcDbCircle
 10
153.442079
 20
122.058161
 30
0.0
 40
0.26
100
AcDbArc
 50
90.0
 51
270.0
  0
LINE
  5
347
330
1E
100
AcDbEntity
  8
1
  6
Continuous
 62
     7
100
AcDbLine
 10
153.442079
 20
121.798161
 30
0.0
 11
155.5220789999999
 21
121.798161
 31
0.0
  0
LINE
  5
348
330
1E
100
AcDbEntity
  8
1
  6
Continuous
 62
     7
100
AcDbLine
 10
153.442079
 20
122.318161
 30
0.0
 11
155.5220789999999
 21
122.318161
 31
0.0
  0
ARC
  5
349
330
1E
100
AcDbEntity
  8
1
  6
Continuous
 62
     7
100
AcDbCircle
 10
155.5220789999999
 20
122.058161
 30
0.0
 40
0.26
100
AcDbArc
 50
270.0
 51
90.0
  0
ARC
  5
34A
330
1E
100
AcDbEntity
  8
1
  6
Continuous
 62
     7
100
AcDbCircle
 10
155.5220789999999
 20
122.058161
 30
0.0
 40
0.26
100
AcDbArc
 50
270.0
 51
90.0
  0
LINE
  5
34B
330
1E
100
AcDbEntity
  8
1
  6
Continuous
 62
     7
100
AcDbLine
 10
153.442079
 20
122.318161
 30
0.0
 11
155.5220789999999
 21
122.318161
 31
0.0
  0
LINE
  5
34C
330
1E
100
AcDbEntity
  8
1
  6
Continuous
 62
     7
100
AcDbLine
 10
153.442079
 20
121.798161
 30
0.0
 11
155.5220789999999
 21
121.798161
 31
0.0
  0
ARC
  5
34D
330
1E
100
AcDbEntity
  8
1
  6
Continuous
 62
     7
100
AcDbCircle
 10
153.442079
 20
122.058161
 30
0.0
 40
0.26
100
AcDbArc
 50
90.0
 51
270.0
  0
ARC
  5
34E
330
1E
100
AcDbEntity
  8
1
  6
Continuous
 62
     7
100
AcDbCircle
 10
153.442079
 20
122.058161
 30
0.0
 40
0.26
100
AcDbArc
 50
90.0
 51
270.0
  0
LINE
  5
34F
330
1E
100
AcDbEntity
  8
1
  6
Continuous
 62
     7
100
AcDbLine
 10
153.442079
 20
121.798161
 30
0.0
 11
155.5220789999999
 21
121.798161
 31
0.0
  0
LINE
  5
350
330
1E
100
AcDbEntity
  8
1
  6
Continuous
 62
     7
100
AcDbLine
 10
153.442079
 20
122.318161
 30
0.0
 11
155.5220789999999
 21
122.318161
 31
0.0
  0
ARC
  5
351
330
1E
100
AcDbEntity
  8
1
  6
Continuous
 62
     7
100
AcDbCircle
 10
155.5220789999999
 20
122.058161
 30
0.0
 40
0.26
100
AcDbArc
 50
270.0
 51
90.0
  0
ARC
  5
352
330
1E
100
AcDbEntity
  8
1
  6
Continuous
 62
     7
100
AcDbCircle
 10
155.5220789999999
 20
122.058161
 30
0.0
 40
0.26
100
AcDbArc
 50
270.0
 51
90.0
  0
LINE
  5
353
330
1E
100
AcDbEntity
  8
1
  6
Continuous
 62
     7
100
AcDbLine
 10
153.442079
 20
122.318161
 30
0.0
 11
155.5220789999999
 21
122.318161
 31
0.0
  0
LINE
  5
354
330
1E
100
AcDbEntity
  8
1
  6
Continuous
 62
     7
100
AcDbLine
 10
155.392079
 20
123.748161
 30
0.0
 11
157.472079
 21
123.748161
 31
0.0
  0
LINE
  5
355
330
1E
100
AcDbEntity
  8
1
  6
Continuous
 62
     7
100
AcDbLine
 10
155.392079
 20
123.748161
 30
0.0
 11
157.472079
 21
123.748161
 31
0.0
  0
LINE
  5
356
330
1E
100
AcDbEntity
  8
1
  6
Continuous
 62
     7
100
AcDbLine
 10
155.392079
 20
123.748161
 30
0.0
 11
157.472079
 21
123.748161
 31
0.0
  0
LINE
  5
357
330
1E
100
AcDbEntity
  8
1
  6
Continuous
 62
     7
100
AcDbLine
 10
155.392079
 20
123.748161
 30
0.0
 11
157.472079
 21
123.748161
 31
0.0
  0
ARC
  5
358
330
1E
100
AcDbEntity
  8
1
  6
Continuous
 62
     7
100
AcDbCircle
 10
157.472079
 20
124.008161
 30
0.0
 40
0.26
100
AcDbArc
 50
270.0
 51
90.0
  0
ARC
  5
359
330
1E
100
AcDbEntity
  8
1
  6
Continuous
 62
     7
100
AcDbCircle
 10
155.392079
 20
124.008161
 30
0.0
 40
0.26
100
AcDbArc
 50
90.0
 51
270.0
  0
ARC
  5
35A
330
1E
100
AcDbEntity
  8
1
  6
Continuous
 62
     7
100
AcDbCircle
 10
155.392079
 20
124.008161
 30
0.0
 40
0.26
100
AcDbArc
 50
90.0
 51
270.0
  0
ARC
  5
35B
330
1E
100
AcDbEntity
  8
1
  6
Continuous
 62
     7
100
AcDbCircle
 10
157.472079
 20
124.008161
 30
0.0
 40
0.26
100
AcDbArc
 50
270.0
 51
90.0
  0
LINE
  5
35C
330
1E
100
AcDbEntity
  8
1
  6
Continuous
 62
     7
100
AcDbLine
 10
153.442079
 20
102.818161
 30
0.0
 11
155.5220789999999
 21
102.818161
 31
0.0
  0
ARC
  5
35D
330
1E
100
AcDbEntity
  8
1
  6
Continuous
 62
     7
100
AcDbCircle
 10
155.5220789999999
 20
102.5581609999999
 30
0.0
 40
0.26
100
AcDbArc
 50
270.0
 51
90.0
  0
ARC
  5
35E
330
1E
100
AcDbEntity
  8
1
  6
Continuous
 62
     7
100
AcDbCircle
 10
155.5220789999999
 20
102.5581609999999
 30
0.0
 40
0.26
100
AcDbArc
 50
270.0
 51
90.0
  0
LINE
  5
35F
330
1E
100
AcDbEntity
  8
1
  6
Continuous
 62
     7
100
AcDbLine
 10
153.442079
 20
102.818161
 30
0.0
 11
155.5220789999999
 21
102.818161
 31
0.0
  0
LINE
  5
360
330
1E
100
AcDbEntity
  8
1
  6
Continuous
 62
     7
100
AcDbLine
 10
153.442079
 20
102.2981609999999
 30
0.0
 11
155.5220789999999
 21
102.2981609999999
 31
0.0
  0
ARC
  5
361
330
1E
100
AcDbEntity
  8
1
  6
Continuous
 62
     7
100
AcDbCircle
 10
153.442079
 20
102.5581609999999
 30
0.0
 40
0.26
100
AcDbArc
 50
90.0
 51
270.0
  0
ARC
  5
362
330
1E
100
AcDbEntity
  8
1
  6
Continuous
 62
     7
100
AcDbCircle
 10
153.442079
 20
102.5581609999999
 30
0.0
 40
0.26
100
AcDbArc
 50
90.0
 51
270.0
  0
LINE
  5
363
330
1E
100
AcDbEntity
  8
1
  6
Continuous
 62
     7
100
AcDbLine
 10
153.442079
 20
102.2981609999999
 30
0.0
 11
155.5220789999999
 21
102.2981609999999
 31
0.0
  0
LINE
  5
364
330
1E
100
AcDbEntity
  8
1
  6
Continuous
 62
     7
100
AcDbLine
 10
153.442079
 20
102.818161
 30
0.0
 11
155.5220789999999
 21
102.818161
 31
0.0
  0
ARC
  5
365
330
1E
100
AcDbEntity
  8
1
  6
Continuous
 62
     7
100
AcDbCircle
 10
155.5220789999999
 20
102.5581609999999
 30
0.0
 40
0.26
100
AcDbArc
 50
270.0
 51
90.0
  0
LINE
  5
366
330
1E
100
AcDbEntity
  8
1
  6
Continuous
 62
     7
100
AcDbLine
 10
153.442079
 20
126.218161
 30
0.0
 11
155.5220789999999
 21
126.218161
 31
0.0
  0
ARC
  5
367
330
1E
100
AcDbEntity
  8
1
  6
Continuous
 62
     7
100
AcDbCircle
 10
155.5220789999999
 20
125.958161
 30
0.0
 40
0.26
100
AcDbArc
 50
270.0
 51
90.0
  0
ARC
  5
368
330
1E
100
AcDbEntity
  8
1
  6
Continuous
 62
     7
100
AcDbCircle
 10
155.5220789999999
 20
125.958161
 30
0.0
 40
0.26
100
AcDbArc
 50
270.0
 51
90.0
  0
LINE
  5
369
330
1E
100
AcDbEntity
  8
1
  6
Continuous
 62
     7
100
AcDbLine
 10
153.442079
 20
126.218161
 30
0.0
 11
155.5220789999999
 21
126.218161
 31
0.0
  0
LINE
  5
36A
330
1E
100
AcDbEntity
  8
1
  6
Continuous
 62
     7
100
AcDbLine
 10
153.442079
 20
125.698161
 30
0.0
 11
155.5220789999999
 21
125.698161
 31
0.0
  0
ARC
  5
36B
330
1E
100
AcDbEntity
  8
1
  6
Continuous
 62
     7
100
AcDbCircle
 10
153.442079
 20
125.958161
 30
0.0
 40
0.26
100
AcDbArc
 50
90.0
 51
270.0
  0
ARC
  5
36C
330
1E
100
AcDbEntity
  8
1
  6
Continuous
 62
     7
100
AcDbCircle
 10
153.442079
 20
125.958161
 30
0.0
 40
0.26
100
AcDbArc
 50
90.0
 51
270.0
  0
LINE
  5
36D
330
1E
100
AcDbEntity
  8
1
  6
Continuous
 62
     7
100
AcDbLine
 10
153.442079
 20
125.698161
 30
0.0
 11
155.5220789999999
 21
125.698161
 31
0.0
  0
LINE
  5
36E
330
1E
100
AcDbEntity
  8
1
  6
Continuous
 62
     7
100
AcDbLine
 10
153.442079
 20
126.218161
 30
0.0
 11
155.5220789999999
 21
126.218161
 31
0.0
  0
ARC
  5
36F
330
1E
100
AcDbEntity
  8
1
  6
Continuous
 62
     7
100
AcDbCircle
 10
155.5220789999999
 20
125.958161
 30
0.0
 40
0.26
100
AcDbArc
 50
270.0
 51
90.0
  0
ARC
  5
370
330
1E
100
AcDbEntity
  8
1
  6
Continuous
 62
     7
100
AcDbCircle
 10
155.5220789999999
 20
125.958161
 30
0.0
 40
0.26
100
AcDbArc
 50
270.0
 51
90.0
  0
LINE
  5
371
330
1E
100
AcDbEntity
  8
1
  6
Continuous
 62
     7
100
AcDbLine
 10
153.442079
 20
126.218161
 30
0.0
 11
155.5220789999999
 21
126.218161
 31
0.0
  0
LINE
  5
372
330
1E
100
AcDbEntity
  8
1
  6
Continuous
 62
     7
100
AcDbLine
 10
153.442079
 20
125.698161
 30
0.0
 11
155.5220789999999
 21
125.698161
 31
0.0
  0
ARC
  5
373
330
1E
100
AcDbEntity
  8
1
  6
Continuous
 62
     7
100
AcDbCircle
 10
153.442079
 20
125.958161
 30
0.0
 40
0.26
100
AcDbArc
 50
90.0
 51
270.0
  0
ARC
  5
374
330
1E
100
AcDbEntity
  8
1
  6
Continuous
 62
     7
100
AcDbCircle
 10
153.442079
 20
125.958161
 30
0.0
 40
0.26
100
AcDbArc
 50
90.0
 51
270.0
  0
ARC
  5
375
330
1E
100
AcDbEntity
  8
1
  6
Continuous
 62
     7
100
AcDbCircle
 10
157.472079
 20
100.608161
 30
0.0
 40
0.26
100
AcDbArc
 50
270.0
 51
90.0
  0
LINE
  5
376
330
1E
100
AcDbEntity
  8
1
  6
Continuous
 62
     7
100
AcDbLine
 10
155.392079
 20
100.868161
 30
0.0
 11
157.472079
 21
100.868161
 31
0.0
  0
LINE
  5
377
330
1E
100
AcDbEntity
  8
1
  6
Continuous
 62
     7
100
AcDbLine
 10
155.392079
 20
100.868161
 30
0.0
 11
157.472079
 21
100.868161
 31
0.0
  0
LINE
  5
378
330
1E
100
AcDbEntity
  8
1
  6
Continuous
 62
     7
100
AcDbLine
 10
155.392079
 20
100.868161
 30
0.0
 11
157.472079
 21
100.868161
 31
0.0
  0
LINE
  5
379
330
1E
100
AcDbEntity
  8
1
  6
Continuous
 62
     7
100
AcDbLine
 10
155.392079
 20
100.868161
 30
0.0
 11
157.472079
 21
100.868161
 31
0.0
  0
ARC
  5
37A
330
1E
100
AcDbEntity
  8
1
  6
Continuous
 62
     7
100
AcDbCircle
 10
155.5220789999999
 20
98.65816099999999
 30
0.0
 40
0.26
100
AcDbArc
 50
270.0
 51
90.0
  0
LINE
  5
37B
330
1E
100
AcDbEntity
  8
1
  6
Continuous
 62
     7
100
AcDbLine
 10
153.442079
 20
98.91816099999999
 30
0.0
 11
155.5220789999999
 21
98.91816099999999
 31
0.0
  0
LINE
  5
37C
330
1E
100
AcDbEntity
  8
1
  6
Continuous
 62
     7
100
AcDbLine
 10
153.442079
 20
98.398161
 30
0.0
 11
155.5220789999999
 21
98.398161
 31
0.0
  0
ARC
  5
37D
330
1E
100
AcDbEntity
  8
1
  6
Continuous
 62
     7
100
AcDbCircle
 10
153.442079
 20
98.65816099999999
 30
0.0
 40
0.26
100
AcDbArc
 50
90.0
 51
270.0
  0
ARC
  5
37E
330
1E
100
AcDbEntity
  8
1
  6
Continuous
 62
     7
100
AcDbCircle
 10
153.442079
 20
98.65816099999999
 30
0.0
 40
0.26
100
AcDbArc
 50
90.0
 51
270.0
  0
LINE
  5
37F
330
1E
100
AcDbEntity
  8
1
  6
Continuous
 62
     7
100
AcDbLine
 10
153.442079
 20
98.398161
 30
0.0
 11
155.5220789999999
 21
98.398161
 31
0.0
  0
LINE
  5
380
330
1E
100
AcDbEntity
  8
1
  6
Continuous
 62
     7
100
AcDbLine
 10
153.442079
 20
98.91816099999999
 30
0.0
 11
155.5220789999999
 21
98.91816099999999
 31
0.0
  0
ARC
  5
381
330
1E
100
AcDbEntity
  8
1
  6
Continuous
 62
     7
100
AcDbCircle
 10
155.5220789999999
 20
98.65816099999999
 30
0.0
 40
0.26
100
AcDbArc
 50
270.0
 51
90.0
  0
ARC
  5
382
330
1E
100
AcDbEntity
  8
1
  6
Continuous
 62
     7
100
AcDbCircle
 10
155.5220789999999
 20
98.65816099999999
 30
0.0
 40
0.26
100
AcDbArc
 50
270.0
 51
90.0
  0
LINE
  5
383
330
1E
100
AcDbEntity
  8
1
  6
Continuous
 62
     7
100
AcDbLine
 10
153.442079
 20
98.91816099999999
 30
0.0
 11
155.5220789999999
 21
98.91816099999999
 31
0.0
  0
LINE
  5
384
330
1E
100
AcDbEntity
  8
1
  6
Continuous
 62
     7
100
AcDbLine
 10
155.392079
 20
104.248161
 30
0.0
 11
157.472079
 21
104.248161
 31
0.0
  0
LINE
  5
385
330
1E
100
AcDbEntity
  8
1
  6
Continuous
 62
     7
100
AcDbLine
 10
155.392079
 20
104.248161
 30
0.0
 11
157.472079
 21
104.248161
 31
0.0
  0
LINE
  5
386
330
1E
100
AcDbEntity
  8
1
  6
Continuous
 62
     7
100
AcDbLine
 10
155.392079
 20
104.248161
 30
0.0
 11
157.472079
 21
104.248161
 31
0.0
  0
LINE
  5
387
330
1E
100
AcDbEntity
  8
1
  6
Continuous
 62
     7
100
AcDbLine
 10
155.392079
 20
104.248161
 30
0.0
 11
157.472079
 21
104.248161
 31
0.0
  0
ARC
  5
388
330
1E
100
AcDbEntity
  8
1
  6
Continuous
 62
     7
100
AcDbCircle
 10
155.5220789999999
 20
102.5581609999999
 30
0.0
 40
0.26
100
AcDbArc
 50
270.0
 51
90.0
  0
LINE
  5
389
330
1E
100
AcDbEntity
  8
1
  6
Continuous
 62
     7
100
AcDbLine
 10
153.442079
 20
102.818161
 30
0.0
 11
155.5220789999999
 21
102.818161
 31
0.0
  0
LINE
  5
38A
330
1E
100
AcDbEntity
  8
1
  6
Continuous
 62
     7
100
AcDbLine
 10
153.442079
 20
102.2981609999999
 30
0.0
 11
155.5220789999999
 21
102.2981609999999
 31
0.0
  0
ARC
  5
38B
330
1E
100
AcDbEntity
  8
1
  6
Continuous
 62
     7
100
AcDbCircle
 10
153.442079
 20
102.5581609999999
 30
0.0
 40
0.26
100
AcDbArc
 50
90.0
 51
270.0
  0
ARC
  5
38C
330
1E
100
AcDbEntity
  8
1
  6
Continuous
 62
     7
100
AcDbCircle
 10
153.442079
 20
102.5581609999999
 30
0.0
 40
0.26
100
AcDbArc
 50
90.0
 51
270.0
  0
LINE
  5
38D
330
1E
100
AcDbEntity
  8
1
  6
Continuous
 62
     7
100
AcDbLine
 10
153.442079
 20
102.2981609999999
 30
0.0
 11
155.5220789999999
 21
102.2981609999999
 31
0.0
  0
ARC
  5
38E
330
1E
100
AcDbEntity
  8
1
  6
Continuous
 62
     7
100
AcDbCircle
 10
157.472079
 20
104.5081609999999
 30
0.0
 40
0.26
100
AcDbArc
 50
270.0
 51
90.0
  0
ARC
  5
38F
330
1E
100
AcDbEntity
  8
1
  6
Continuous
 62
     7
100
AcDbCircle
 10
155.392079
 20
104.5081609999999
 30
0.0
 40
0.26
100
AcDbArc
 50
90.0
 51
270.0
  0
ARC
  5
390
330
1E
100
AcDbEntity
  8
1
  6
Continuous
 62
     7
100
AcDbCircle
 10
155.392079
 20
104.5081609999999
 30
0.0
 40
0.26
100
AcDbArc
 50
90.0
 51
270.0
  0
ARC
  5
391
330
1E
100
AcDbEntity
  8
1
  6
Continuous
 62
     7
100
AcDbCircle
 10
157.472079
 20
104.5081609999999
 30
0.0
 40
0.26
100
AcDbArc
 50
270.0
 51
90.0
  0
ARC
  5
392
330
1E
100
AcDbEntity
  8
1
  6
Continuous
 62
     7
100
AcDbCircle
 10
157.472079
 20
104.5081609999999
 30
0.0
 40
0.26
100
AcDbArc
 50
270.0
 51
90.0
  0
ARC
  5
393
330
1E
100
AcDbEntity
  8
1
  6
Continuous
 62
     7
100
AcDbCircle
 10
155.392079
 20
104.5081609999999
 30
0.0
 40
0.26
100
AcDbArc
 50
90.0
 51
270.0
  0
ARC
  5
394
330
1E
100
AcDbEntity
  8
1
  6
Continuous
 62
     7
100
AcDbCircle
 10
155.392079
 20
104.5081609999999
 30
0.0
 40
0.26
100
AcDbArc
 50
90.0
 51
270.0
  0
ARC
  5
395
330
1E
100
AcDbEntity
  8
1
  6
Continuous
 62
     7
100
AcDbCircle
 10
157.472079
 20
104.5081609999999
 30
0.0
 40
0.26
100
AcDbArc
 50
270.0
 51
90.0
  0
LINE
  5
396
330
1E
100
AcDbEntity
  8
1
  6
Continuous
 62
     7
100
AcDbLine
 10
153.442079
 20
98.398161
 30
0.0
 11
155.5220789999999
 21
98.398161
 31
0.0
  0
ARC
  5
397
330
1E
100
AcDbEntity
  8
1
  6
Continuous
 62
     7
100
AcDbCircle
 10
153.442079
 20
98.65816099999999
 30
0.0
 40
0.26
100
AcDbArc
 50
90.0
 51
270.0
  0
ARC
  5
398
330
1E
100
AcDbEntity
  8
1
  6
Continuous
 62
     7
100
AcDbCircle
 10
153.442079
 20
98.65816099999999
 30
0.0
 40
0.26
100
AcDbArc
 50
90.0
 51
270.0
  0
LINE
  5
399
330
1E
100
AcDbEntity
  8
1
  6
Continuous
 62
     7
100
AcDbLine
 10
153.442079
 20
98.398161
 30
0.0
 11
155.5220789999999
 21
98.398161
 31
0.0
  0
LINE
  5
39A
330
1E
100
AcDbEntity
  8
1
  6
Continuous
 62
     7
100
AcDbLine
 10
153.442079
 20
98.91816099999999
 30
0.0
 11
155.5220789999999
 21
98.91816099999999
 31
0.0
  0
ARC
  5
39B
330
1E
100
AcDbEntity
  8
1
  6
Continuous
 62
     7
100
AcDbCircle
 10
155.5220789999999
 20
98.65816099999999
 30
0.0
 40
0.26
100
AcDbArc
 50
270.0
 51
90.0
  0
LINE
  5
39C
330
1E
100
AcDbEntity
  8
1
  6
Continuous
 62
     7
100
AcDbLine
 10
155.392079
 20
100.348161
 30
0.0
 11
157.472079
 21
100.348161
 31
0.0
  0
LINE
  5
39D
330
1E
100
AcDbEntity
  8
1
  6
Continuous
 62
     7
100
AcDbLine
 10
155.392079
 20
100.348161
 30
0.0
 11
157.472079
 21
100.348161
 31
0.0
  0
LINE
  5
39E
330
1E
100
AcDbEntity
  8
1
  6
Continuous
 62
     7
100
AcDbLine
 10
155.392079
 20
100.348161
 30
0.0
 11
157.472079
 21
100.348161
 31
0.0
  0
LINE
  5
39F
330
1E
100
AcDbEntity
  8
1
  6
Continuous
 62
     7
100
AcDbLine
 10
155.392079
 20
100.348161
 30
0.0
 11
157.472079
 21
100.348161
 31
0.0
  0
ARC
  5
3A0
330
1E
100
AcDbEntity
  8
1
  6
Continuous
 62
     7
100
AcDbCircle
 10
157.472079
 20
100.608161
 30
0.0
 40
0.26
100
AcDbArc
 50
270.0
 51
90.0
  0
ARC
  5
3A1
330
1E
100
AcDbEntity
  8
1
  6
Continuous
 62
     7
100
AcDbCircle
 10
155.392079
 20
100.608161
 30
0.0
 40
0.26
100
AcDbArc
 50
90.0
 51
270.0
  0
ARC
  5
3A2
330
1E
100
AcDbEntity
  8
1
  6
Continuous
 62
     7
100
AcDbCircle
 10
155.392079
 20
100.608161
 30
0.0
 40
0.26
100
AcDbArc
 50
90.0
 51
270.0
  0
ARC
  5
3A3
330
1E
100
AcDbEntity
  8
1
  6
Continuous
 62
     7
100
AcDbCircle
 10
157.472079
 20
100.608161
 30
0.0
 40
0.26
100
AcDbArc
 50
270.0
 51
90.0
  0
ARC
  5
3A4
330
1E
100
AcDbEntity
  8
1
  6
Continuous
 62
     7
100
AcDbCircle
 10
157.472079
 20
100.608161
 30
0.0
 40
0.26
100
AcDbArc
 50
270.0
 51
90.0
  0
ARC
  5
3A5
330
1E
100
AcDbEntity
  8
1
  6
Continuous
 62
     7
100
AcDbCircle
 10
155.392079
 20
100.608161
 30
0.0
 40
0.26
100
AcDbArc
 50
90.0
 51
270.0
  0
ARC
  5
3A6
330
1E
100
AcDbEntity
  8
1
  6
Continuous
 62
     7
100
AcDbCircle
 10
155.392079
 20
100.608161
 30
0.0
 40
0.26
100
AcDbArc
 50
90.0
 51
270.0
  0
LINE
  5
3A7
330
1E
100
AcDbEntity
  8
1
  6
Continuous
 62
     7
100
AcDbLine
 10
167.092079
 20
108.668161
 30
0.0
 11
169.1720789999999
 21
108.668161
 31
0.0
  0
ARC
  5
3A8
330
1E
100
AcDbEntity
  8
1
  6
Continuous
 62
     7
100
AcDbCircle
 10
167.222079
 20
106.458161
 30
0.0
 40
0.26
100
AcDbArc
 50
270.0
 51
90.0
  0
LINE
  5
3A9
330
1E
100
AcDbEntity
  8
1
  6
Continuous
 62
     7
100
AcDbLine
 10
165.1420789999999
 20
106.718161
 30
0.0
 11
167.222079
 21
106.718161
 31
0.0
  0
LINE
  5
3AA
330
1E
100
AcDbEntity
  8
1
  6
Continuous
 62
     7
100
AcDbLine
 10
165.1420789999999
 20
106.198161
 30
0.0
 11
167.222079
 21
106.198161
 31
0.0
  0
ARC
  5
3AB
330
1E
100
AcDbEntity
  8
1
  6
Continuous
 62
     7
100
AcDbCircle
 10
165.1420789999999
 20
106.458161
 30
0.0
 40
0.26
100
AcDbArc
 50
90.0
 51
270.0
  0
ARC
  5
3AC
330
1E
100
AcDbEntity
  8
1
  6
Continuous
 62
     7
100
AcDbCircle
 10
165.1420789999999
 20
106.458161
 30
0.0
 40
0.26
100
AcDbArc
 50
90.0
 51
270.0
  0
LINE
  5
3AD
330
1E
100
AcDbEntity
  8
1
  6
Continuous
 62
     7
100
AcDbLine
 10
165.1420789999999
 20
106.198161
 30
0.0
 11
167.222079
 21
106.198161
 31
0.0
  0
LINE
  5
3AE
330
1E
100
AcDbEntity
  8
1
  6
Continuous
 62
     7
100
AcDbLine
 10
165.1420789999999
 20
106.718161
 30
0.0
 11
167.222079
 21
106.718161
 31
0.0
  0
ARC
  5
3AF
330
1E
100
AcDbEntity
  8
1
  6
Continuous
 62
     7
100
AcDbCircle
 10
167.222079
 20
106.458161
 30
0.0
 40
0.26
100
AcDbArc
 50
270.0
 51
90.0
  0
ARC
  5
3B0
330
1E
100
AcDbEntity
  8
1
  6
Continuous
 62
     7
100
AcDbCircle
 10
167.222079
 20
106.458161
 30
0.0
 40
0.26
100
AcDbArc
 50
270.0
 51
90.0
  0
LINE
  5
3B1
330
1E
100
AcDbEntity
  8
1
  6
Continuous
 62
     7
100
AcDbLine
 10
165.1420789999999
 20
106.718161
 30
0.0
 11
167.222079
 21
106.718161
 31
0.0
  0
LINE
  5
3B2
330
1E
100
AcDbEntity
  8
1
  6
Continuous
 62
     7
100
AcDbLine
 10
167.092079
 20
104.7681609999999
 30
0.0
 11
169.1720789999999
 21
104.7681609999999
 31
0.0
  0
LINE
  5
3B3
330
1E
100
AcDbEntity
  8
1
  6
Continuous
 62
     7
100
AcDbLine
 10
167.092079
 20
104.7681609999999
 30
0.0
 11
169.1720789999999
 21
104.7681609999999
 31
0.0
  0
LINE
  5
3B4
330
1E
100
AcDbEntity
  8
1
  6
Continuous
 62
     7
100
AcDbLine
 10
167.092079
 20
104.7681609999999
 30
0.0
 11
169.1720789999999
 21
104.7681609999999
 31
0.0
  0
LINE
  5
3B5
330
1E
100
AcDbEntity
  8
1
  6
Continuous
 62
     7
100
AcDbLine
 10
167.092079
 20
104.7681609999999
 30
0.0
 11
169.1720789999999
 21
104.7681609999999
 31
0.0
  0
LINE
  5
3B6
330
1E
100
AcDbEntity
  8
1
  6
Continuous
 62
     7
100
AcDbLine
 10
167.092079
 20
112.5681609999999
 30
0.0
 11
169.1720789999999
 21
112.5681609999999
 31
0.0
  0
LINE
  5
3B7
330
1E
100
AcDbEntity
  8
1
  6
Continuous
 62
     7
100
AcDbLine
 10
167.092079
 20
112.5681609999999
 30
0.0
 11
169.1720789999999
 21
112.5681609999999
 31
0.0
  0
LINE
  5
3B8
330
1E
100
AcDbEntity
  8
1
  6
Continuous
 62
     7
100
AcDbLine
 10
167.092079
 20
112.5681609999999
 30
0.0
 11
169.1720789999999
 21
112.5681609999999
 31
0.0
  0
LINE
  5
3B9
330
1E
100
AcDbEntity
  8
1
  6
Continuous
 62
     7
100
AcDbLine
 10
167.092079
 20
112.5681609999999
 30
0.0
 11
169.1720789999999
 21
112.5681609999999
 31
0.0
  0
LINE
  5
3BA
330
1E
100
AcDbEntity
  8
1
  6
Continuous
 62
     7
100
AcDbLine
 10
165.1420789999999
 20
106.198161
 30
0.0
 11
167.222079
 21
106.198161
 31
0.0
  0
ARC
  5
3BB
330
1E
100
AcDbEntity
  8
1
  6
Continuous
 62
     7
100
AcDbCircle
 10
165.1420789999999
 20
106.458161
 30
0.0
 40
0.26
100
AcDbArc
 50
90.0
 51
270.0
  0
ARC
  5
3BC
330
1E
100
AcDbEntity
  8
1
  6
Continuous
 62
     7
100
AcDbCircle
 10
165.1420789999999
 20
106.458161
 30
0.0
 40
0.26
100
AcDbArc
 50
90.0
 51
270.0
  0
LINE
  5
3BD
330
1E
100
AcDbEntity
  8
1
  6
Continuous
 62
     7
100
AcDbLine
 10
165.1420789999999
 20
106.198161
 30
0.0
 11
167.222079
 21
106.198161
 31
0.0
  0
LINE
  5
3BE
330
1E
100
AcDbEntity
  8
1
  6
Continuous
 62
     7
100
AcDbLine
 10
165.1420789999999
 20
106.718161
 30
0.0
 11
167.222079
 21
106.718161
 31
0.0
  0
ARC
  5
3BF
330
1E
100
AcDbEntity
  8
1
  6
Continuous
 62
     7
100
AcDbCircle
 10
167.222079
 20
106.458161
 30
0.0
 40
0.26
100
AcDbArc
 50
270.0
 51
90.0
  0
LINE
  5
3C0
330
1E
100
AcDbEntity
  8
1
  6
Continuous
 62
     7
100
AcDbLine
 10
167.092079
 20
108.148161
 30
0.0
 11
169.1720789999999
 21
108.148161
 31
0.0
  0
LINE
  5
3C1
330
1E
100
AcDbEntity
  8
1
  6
Continuous
 62
     7
100
AcDbLine
 10
167.092079
 20
108.148161
 30
0.0
 11
169.1720789999999
 21
108.148161
 31
0.0
  0
LINE
  5
3C2
330
1E
100
AcDbEntity
  8
1
  6
Continuous
 62
     7
100
AcDbLine
 10
167.092079
 20
108.148161
 30
0.0
 11
169.1720789999999
 21
108.148161
 31
0.0
  0
LINE
  5
3C3
330
1E
100
AcDbEntity
  8
1
  6
Continuous
 62
     7
100
AcDbLine
 10
167.092079
 20
108.148161
 30
0.0
 11
169.1720789999999
 21
108.148161
 31
0.0
  0
ARC
  5
3C4
330
1E
100
AcDbEntity
  8
1
  6
Continuous
 62
     7
100
AcDbCircle
 10
169.1720789999999
 20
108.408161
 30
0.0
 40
0.26
100
AcDbArc
 50
270.0
 51
90.0
  0
ARC
  5
3C5
330
1E
100
AcDbEntity
  8
1
  6
Continuous
 62
     7
100
AcDbCircle
 10
167.092079
 20
108.408161
 30
0.0
 40
0.26
100
AcDbArc
 50
90.0
 51
270.0
  0
ARC
  5
3C6
330
1E
100
AcDbEntity
  8
1
  6
Continuous
 62
     7
100
AcDbCircle
 10
167.092079
 20
108.408161
 30
0.0
 40
0.26
100
AcDbArc
 50
90.0
 51
270.0
  0
ARC
  5
3C7
330
1E
100
AcDbEntity
  8
1
  6
Continuous
 62
     7
100
AcDbCircle
 10
169.1720789999999
 20
108.408161
 30
0.0
 40
0.26
100
AcDbArc
 50
270.0
 51
90.0
  0
ARC
  5
3C8
330
1E
100
AcDbEntity
  8
1
  6
Continuous
 62
     7
100
AcDbCircle
 10
169.1720789999999
 20
108.408161
 30
0.0
 40
0.26
100
AcDbArc
 50
270.0
 51
90.0
  0
ARC
  5
3C9
330
1E
100
AcDbEntity
  8
1
  6
Continuous
 62
     7
100
AcDbCircle
 10
167.092079
 20
108.408161
 30
0.0
 40
0.26
100
AcDbArc
 50
90.0
 51
270.0
  0
ARC
  5
3CA
330
1E
100
AcDbEntity
  8
1
  6
Continuous
 62
     7
100
AcDbCircle
 10
167.092079
 20
108.408161
 30
0.0
 40
0.26
100
AcDbArc
 50
90.0
 51
270.0
  0
ARC
  5
3CB
330
1E
100
AcDbEntity
  8
1
  6
Continuous
 62
     7
100
AcDbCircle
 10
169.1720789999999
 20
108.408161
 30
0.0
 40
0.26
100
AcDbArc
 50
270.0
 51
90.0
  0
LINE
  5
3CC
330
1E
100
AcDbEntity
  8
1
  6
Continuous
 62
     7
100
AcDbLine
 10
167.092079
 20
108.668161
 30
0.0
 11
169.1720789999999
 21
108.668161
 31
0.0
  0
LINE
  5
3CD
330
1E
100
AcDbEntity
  8
1
  6
Continuous
 62
     7
100
AcDbLine
 10
167.092079
 20
108.668161
 30
0.0
 11
169.1720789999999
 21
108.668161
 31
0.0
  0
LINE
  5
3CE
330
1E
100
AcDbEntity
  8
1
  6
Continuous
 62
     7
100
AcDbLine
 10
167.092079
 20
108.668161
 30
0.0
 11
169.1720789999999
 21
108.668161
 31
0.0
  0
ARC
  5
3CF
330
1E
100
AcDbEntity
  8
1
  6
Continuous
 62
     7
100
AcDbCircle
 10
169.1720789999999
 20
112.308161
 30
0.0
 40
0.26
100
AcDbArc
 50
270.0
 51
90.0
  0
ARC
  5
3D0
330
1E
100
AcDbEntity
  8
1
  6
Continuous
 62
     7
100
AcDbCircle
 10
169.1720789999999
 20
112.308161
 30
0.0
 40
0.26
100
AcDbArc
 50
270.0
 51
90.0
  0
ARC
  5
3D1
330
1E
100
AcDbEntity
  8
1
  6
Continuous
 62
     7
100
AcDbCircle
 10
167.092079
 20
112.308161
 30
0.0
 40
0.26
100
AcDbArc
 50
90.0
 51
270.0
  0
ARC
  5
3D2
330
1E
100
AcDbEntity
  8
1
  6
Continuous
 62
     7
100
AcDbCircle
 10
167.092079
 20
112.308161
 30
0.0
 40
0.26
100
AcDbArc
 50
90.0
 51
270.0
  0
ARC
  5
3D3
330
1E
100
AcDbEntity
  8
1
  6
Continuous
 62
     7
100
AcDbCircle
 10
169.1720789999999
 20
112.308161
 30
0.0
 40
0.26
100
AcDbArc
 50
270.0
 51
90.0
  0
LINE
  5
3D4
330
1E
100
AcDbEntity
  8
1
  6
Continuous
 62
     7
100
AcDbLine
 10
167.092079
 20
112.048161
 30
0.0
 11
169.1720789999999
 21
112.048161
 31
0.0
  0
LINE
  5
3D5
330
1E
100
AcDbEntity
  8
1
  6
Continuous
 62
     7
100
AcDbLine
 10
167.092079
 20
112.048161
 30
0.0
 11
169.1720789999999
 21
112.048161
 31
0.0
  0
LINE
  5
3D6
330
1E
100
AcDbEntity
  8
1
  6
Continuous
 62
     7
100
AcDbLine
 10
167.092079
 20
112.048161
 30
0.0
 11
169.1720789999999
 21
112.048161
 31
0.0
  0
LINE
  5
3D7
330
1E
100
AcDbEntity
  8
1
  6
Continuous
 62
     7
100
AcDbLine
 10
167.092079
 20
112.048161
 30
0.0
 11
169.1720789999999
 21
112.048161
 31
0.0
  0
ARC
  5
3D8
330
1E
100
AcDbEntity
  8
1
  6
Continuous
 62
     7
100
AcDbCircle
 10
167.222079
 20
110.358161
 30
0.0
 40
0.26
100
AcDbArc
 50
270.0
 51
90.0
  0
LINE
  5
3D9
330
1E
100
AcDbEntity
  8
1
  6
Continuous
 62
     7
100
AcDbLine
 10
165.1420789999999
 20
110.618161
 30
0.0
 11
167.222079
 21
110.618161
 31
0.0
  0
LINE
  5
3DA
330
1E
100
AcDbEntity
  8
1
  6
Continuous
 62
     7
100
AcDbLine
 10
165.1420789999999
 20
110.098161
 30
0.0
 11
167.222079
 21
110.098161
 31
0.0
  0
ARC
  5
3DB
330
1E
100
AcDbEntity
  8
1
  6
Continuous
 62
     7
100
AcDbCircle
 10
165.1420789999999
 20
110.358161
 30
0.0
 40
0.26
100
AcDbArc
 50
90.0
 51
270.0
  0
ARC
  5
3DC
330
1E
100
AcDbEntity
  8
1
  6
Continuous
 62
     7
100
AcDbCircle
 10
165.1420789999999
 20
110.358161
 30
0.0
 40
0.26
100
AcDbArc
 50
90.0
 51
270.0
  0
LINE
  5
3DD
330
1E
100
AcDbEntity
  8
1
  6
Continuous
 62
     7
100
AcDbLine
 10
165.1420789999999
 20
110.098161
 30
0.0
 11
167.222079
 21
110.098161
 31
0.0
  0
LINE
  5
3DE
330
1E
100
AcDbEntity
  8
1
  6
Continuous
 62
     7
100
AcDbLine
 10
165.1420789999999
 20
110.618161
 30
0.0
 11
167.222079
 21
110.618161
 31
0.0
  0
ARC
  5
3DF
330
1E
100
AcDbEntity
  8
1
  6
Continuous
 62
     7
100
AcDbCircle
 10
167.222079
 20
110.358161
 30
0.0
 40
0.26
100
AcDbArc
 50
270.0
 51
90.0
  0
ARC
  5
3E0
330
1E
100
AcDbEntity
  8
1
  6
Continuous
 62
     7
100
AcDbCircle
 10
167.222079
 20
110.358161
 30
0.0
 40
0.26
100
AcDbArc
 50
270.0
 51
90.0
  0
LINE
  5
3E1
330
1E
100
AcDbEntity
  8
1
  6
Continuous
 62
     7
100
AcDbLine
 10
165.1420789999999
 20
110.618161
 30
0.0
 11
167.222079
 21
110.618161
 31
0.0
  0
LINE
  5
3E2
330
1E
100
AcDbEntity
  8
1
  6
Continuous
 62
     7
100
AcDbLine
 10
165.1420789999999
 20
110.098161
 30
0.0
 11
167.222079
 21
110.098161
 31
0.0
  0
ARC
  5
3E3
330
1E
100
AcDbEntity
  8
1
  6
Continuous
 62
     7
100
AcDbCircle
 10
165.1420789999999
 20
110.358161
 30
0.0
 40
0.26
100
AcDbArc
 50
90.0
 51
270.0
  0
ARC
  5
3E4
330
1E
100
AcDbEntity
  8
1
  6
Continuous
 62
     7
100
AcDbCircle
 10
165.1420789999999
 20
110.358161
 30
0.0
 40
0.26
100
AcDbArc
 50
90.0
 51
270.0
  0
LINE
  5
3E5
330
1E
100
AcDbEntity
  8
1
  6
Continuous
 62
     7
100
AcDbLine
 10
165.1420789999999
 20
110.098161
 30
0.0
 11
167.222079
 21
110.098161
 31
0.0
  0
LINE
  5
3E6
330
1E
100
AcDbEntity
  8
1
  6
Continuous
 62
     7
100
AcDbLine
 10
165.1420789999999
 20
110.618161
 30
0.0
 11
167.222079
 21
110.618161
 31
0.0
  0
ARC
  5
3E7
330
1E
100
AcDbEntity
  8
1
  6
Continuous
 62
     7
100
AcDbCircle
 10
167.222079
 20
110.358161
 30
0.0
 40
0.26
100
AcDbArc
 50
270.0
 51
90.0
  0
ARC
  5
3E8
330
1E
100
AcDbEntity
  8
1
  6
Continuous
 62
     7
100
AcDbCircle
 10
169.1720789999999
 20
116.2081609999999
 30
0.0
 40
0.26
100
AcDbArc
 50
270.0
 51
90.0
  0
ARC
  5
3E9
330
1E
100
AcDbEntity
  8
1
  6
Continuous
 62
     7
100
AcDbCircle
 10
167.092079
 20
116.2081609999999
 30
0.0
 40
0.26
100
AcDbArc
 50
90.0
 51
270.0
  0
ARC
  5
3EA
330
1E
100
AcDbEntity
  8
1
  6
Continuous
 62
     7
100
AcDbCircle
 10
167.092079
 20
116.2081609999999
 30
0.0
 40
0.26
100
AcDbArc
 50
90.0
 51
270.0
  0
ARC
  5
3EB
330
1E
100
AcDbEntity
  8
1
  6
Continuous
 62
     7
100
AcDbCircle
 10
169.1720789999999
 20
116.2081609999999
 30
0.0
 40
0.26
100
AcDbArc
 50
270.0
 51
90.0
  0
ARC
  5
3EC
330
1E
100
AcDbEntity
  8
1
  6
Continuous
 62
     7
100
AcDbCircle
 10
169.1720789999999
 20
116.2081609999999
 30
0.0
 40
0.26
100
AcDbArc
 50
270.0
 51
90.0
  0
ARC
  5
3ED
330
1E
100
AcDbEntity
  8
1
  6
Continuous
 62
     7
100
AcDbCircle
 10
167.092079
 20
116.2081609999999
 30
0.0
 40
0.26
100
AcDbArc
 50
90.0
 51
270.0
  0
ARC
  5
3EE
330
1E
100
AcDbEntity
  8
1
  6
Continuous
 62
     7
100
AcDbCircle
 10
167.092079
 20
116.2081609999999
 30
0.0
 40
0.26
100
AcDbArc
 50
90.0
 51
270.0
  0
ARC
  5
3EF
330
1E
100
AcDbEntity
  8
1
  6
Continuous
 62
     7
100
AcDbCircle
 10
169.1720789999999
 20
116.2081609999999
 30
0.0
 40
0.26
100
AcDbArc
 50
270.0
 51
90.0
  0
LINE
  5
3F0
330
1E
100
AcDbEntity
  8
1
  6
Continuous
 62
     7
100
AcDbLine
 10
167.092079
 20
116.468161
 30
0.0
 11
169.1720789999999
 21
116.468161
 31
0.0
  0
LINE
  5
3F1
330
1E
100
AcDbEntity
  8
1
  6
Continuous
 62
     7
100
AcDbLine
 10
167.092079
 20
116.468161
 30
0.0
 11
169.1720789999999
 21
116.468161
 31
0.0
  0
LINE
  5
3F2
330
1E
100
AcDbEntity
  8
1
  6
Continuous
 62
     7
100
AcDbLine
 10
167.092079
 20
116.468161
 30
0.0
 11
169.1720789999999
 21
116.468161
 31
0.0
  0
LINE
  5
3F3
330
1E
100
AcDbEntity
  8
1
  6
Continuous
 62
     7
100
AcDbLine
 10
167.092079
 20
116.468161
 30
0.0
 11
169.1720789999999
 21
116.468161
 31
0.0
  0
ARC
  5
3F4
330
1E
100
AcDbEntity
  8
1
  6
Continuous
 62
     7
100
AcDbCircle
 10
167.222079
 20
114.258161
 30
0.0
 40
0.26
100
AcDbArc
 50
270.0
 51
90.0
  0
LINE
  5
3F5
330
1E
100
AcDbEntity
  8
1
  6
Continuous
 62
     7
100
AcDbLine
 10
165.1420789999999
 20
114.518161
 30
0.0
 11
167.222079
 21
114.518161
 31
0.0
  0
LINE
  5
3F6
330
1E
100
AcDbEntity
  8
1
  6
Continuous
 62
     7
100
AcDbLine
 10
165.1420789999999
 20
113.998161
 30
0.0
 11
167.222079
 21
113.998161
 31
0.0
  0
ARC
  5
3F7
330
1E
100
AcDbEntity
  8
1
  6
Continuous
 62
     7
100
AcDbCircle
 10
165.1420789999999
 20
114.258161
 30
0.0
 40
0.26
100
AcDbArc
 50
90.0
 51
270.0
  0
ARC
  5
3F8
330
1E
100
AcDbEntity
  8
1
  6
Continuous
 62
     7
100
AcDbCircle
 10
165.1420789999999
 20
114.258161
 30
0.0
 40
0.26
100
AcDbArc
 50
90.0
 51
270.0
  0
LINE
  5
3F9
330
1E
100
AcDbEntity
  8
1
  6
Continuous
 62
     7
100
AcDbLine
 10
165.1420789999999
 20
113.998161
 30
0.0
 11
167.222079
 21
113.998161
 31
0.0
  0
LINE
  5
3FA
330
1E
100
AcDbEntity
  8
1
  6
Continuous
 62
     7
100
AcDbLine
 10
165.1420789999999
 20
114.518161
 30
0.0
 11
167.222079
 21
114.518161
 31
0.0
  0
ARC
  5
3FB
330
1E
100
AcDbEntity
  8
1
  6
Continuous
 62
     7
100
AcDbCircle
 10
167.222079
 20
114.258161
 30
0.0
 40
0.26
100
AcDbArc
 50
270.0
 51
90.0
  0
ARC
  5
3FC
330
1E
100
AcDbEntity
  8
1
  6
Continuous
 62
     7
100
AcDbCircle
 10
167.222079
 20
114.258161
 30
0.0
 40
0.26
100
AcDbArc
 50
270.0
 51
90.0
  0
LINE
  5
3FD
330
1E
100
AcDbEntity
  8
1
  6
Continuous
 62
     7
100
AcDbLine
 10
165.1420789999999
 20
114.518161
 30
0.0
 11
167.222079
 21
114.518161
 31
0.0
  0
ARC
  5
3FE
330
1E
100
AcDbEntity
  8
1
  6
Continuous
 62
     7
100
AcDbCircle
 10
169.1720789999999
 20
112.308161
 30
0.0
 40
0.26
100
AcDbArc
 50
270.0
 51
90.0
  0
ARC
  5
3FF
330
1E
100
AcDbEntity
  8
1
  6
Continuous
 62
     7
100
AcDbCircle
 10
167.092079
 20
112.308161
 30
0.0
 40
0.26
100
AcDbArc
 50
90.0
 51
270.0
  0
ARC
  5
400
330
1E
100
AcDbEntity
  8
1
  6
Continuous
 62
     7
100
AcDbCircle
 10
167.092079
 20
112.308161
 30
0.0
 40
0.26
100
AcDbArc
 50
90.0
 51
270.0
  0
LINE
  5
401
330
1E
100
AcDbEntity
  8
1
  6
Continuous
 62
     7
100
AcDbLine
 10
165.1420789999999
 20
117.898161
 30
0.0
 11
167.222079
 21
117.898161
 31
0.0
  0
LINE
  5
402
330
1E
100
AcDbEntity
  8
1
  6
Continuous
 62
     7
100
AcDbLine
 10
165.1420789999999
 20
118.418161
 30
0.0
 11
167.222079
 21
118.418161
 31
0.0
  0
ARC
  5
403
330
1E
100
AcDbEntity
  8
1
  6
Continuous
 62
     7
100
AcDbCircle
 10
167.222079
 20
118.158161
 30
0.0
 40
0.26
100
AcDbArc
 50
270.0
 51
90.0
  0
ARC
  5
404
330
1E
100
AcDbEntity
  8
1
  6
Continuous
 62
     7
100
AcDbCircle
 10
167.222079
 20
118.158161
 30
0.0
 40
0.26
100
AcDbArc
 50
270.0
 51
90.0
  0
LINE
  5
405
330
1E
100
AcDbEntity
  8
1
  6
Continuous
 62
     7
100
AcDbLine
 10
165.1420789999999
 20
118.418161
 30
0.0
 11
167.222079
 21
118.418161
 31
0.0
  0
LINE
  5
406
330
1E
100
AcDbEntity
  8
1
  6
Continuous
 62
     7
100
AcDbLine
 10
165.1420789999999
 20
117.898161
 30
0.0
 11
167.222079
 21
117.898161
 31
0.0
  0
ARC
  5
407
330
1E
100
AcDbEntity
  8
1
  6
Continuous
 62
     7
100
AcDbCircle
 10
165.1420789999999
 20
118.158161
 30
0.0
 40
0.26
100
AcDbArc
 50
90.0
 51
270.0
  0
ARC
  5
408
330
1E
100
AcDbEntity
  8
1
  6
Continuous
 62
     7
100
AcDbCircle
 10
165.1420789999999
 20
118.158161
 30
0.0
 40
0.26
100
AcDbArc
 50
90.0
 51
270.0
  0
LINE
  5
409
330
1E
100
AcDbEntity
  8
1
  6
Continuous
 62
     7
100
AcDbLine
 10
165.1420789999999
 20
117.898161
 30
0.0
 11
167.222079
 21
117.898161
 31
0.0
  0
LINE
  5
40A
330
1E
100
AcDbEntity
  8
1
  6
Continuous
 62
     7
100
AcDbLine
 10
165.1420789999999
 20
118.418161
 30
0.0
 11
167.222079
 21
118.418161
 31
0.0
  0
ARC
  5
40B
330
1E
100
AcDbEntity
  8
1
  6
Continuous
 62
     7
100
AcDbCircle
 10
167.222079
 20
118.158161
 30
0.0
 40
0.26
100
AcDbArc
 50
270.0
 51
90.0
  0
LINE
  5
40C
330
1E
100
AcDbEntity
  8
1
  6
Continuous
 62
     7
100
AcDbLine
 10
167.092079
 20
120.368161
 30
0.0
 11
169.1720789999999
 21
120.368161
 31
0.0
  0
LINE
  5
40D
330
1E
100
AcDbEntity
  8
1
  6
Continuous
 62
     7
100
AcDbLine
 10
167.092079
 20
120.368161
 30
0.0
 11
169.1720789999999
 21
120.368161
 31
0.0
  0
LINE
  5
40E
330
1E
100
AcDbEntity
  8
1
  6
Continuous
 62
     7
100
AcDbLine
 10
167.092079
 20
120.368161
 30
0.0
 11
169.1720789999999
 21
120.368161
 31
0.0
  0
LINE
  5
40F
330
1E
100
AcDbEntity
  8
1
  6
Continuous
 62
     7
100
AcDbLine
 10
167.092079
 20
120.368161
 30
0.0
 11
169.1720789999999
 21
120.368161
 31
0.0
  0
LINE
  5
410
330
1E
100
AcDbEntity
  8
1
  6
Continuous
 62
     7
100
AcDbLine
 10
165.1420789999999
 20
113.998161
 30
0.0
 11
167.222079
 21
113.998161
 31
0.0
  0
ARC
  5
411
330
1E
100
AcDbEntity
  8
1
  6
Continuous
 62
     7
100
AcDbCircle
 10
165.1420789999999
 20
114.258161
 30
0.0
 40
0.26
100
AcDbArc
 50
90.0
 51
270.0
  0
ARC
  5
412
330
1E
100
AcDbEntity
  8
1
  6
Continuous
 62
     7
100
AcDbCircle
 10
165.1420789999999
 20
114.258161
 30
0.0
 40
0.26
100
AcDbArc
 50
90.0
 51
270.0
  0
LINE
  5
413
330
1E
100
AcDbEntity
  8
1
  6
Continuous
 62
     7
100
AcDbLine
 10
165.1420789999999
 20
113.998161
 30
0.0
 11
167.222079
 21
113.998161
 31
0.0
  0
LINE
  5
414
330
1E
100
AcDbEntity
  8
1
  6
Continuous
 62
     7
100
AcDbLine
 10
165.1420789999999
 20
114.518161
 30
0.0
 11
167.222079
 21
114.518161
 31
0.0
  0
ARC
  5
415
330
1E
100
AcDbEntity
  8
1
  6
Continuous
 62
     7
100
AcDbCircle
 10
167.222079
 20
114.258161
 30
0.0
 40
0.26
100
AcDbArc
 50
270.0
 51
90.0
  0
LINE
  5
416
330
1E
100
AcDbEntity
  8
1
  6
Continuous
 62
     7
100
AcDbLine
 10
167.092079
 20
115.948161
 30
0.0
 11
169.1720789999999
 21
115.948161
 31
0.0
  0
LINE
  5
417
330
1E
100
AcDbEntity
  8
1
  6
Continuous
 62
     7
100
AcDbLine
 10
167.092079
 20
115.948161
 30
0.0
 11
169.1720789999999
 21
115.948161
 31
0.0
  0
LINE
  5
418
330
1E
100
AcDbEntity
  8
1
  6
Continuous
 62
     7
100
AcDbLine
 10
167.092079
 20
115.948161
 30
0.0
 11
169.1720789999999
 21
115.948161
 31
0.0
  0
LINE
  5
419
330
1E
100
AcDbEntity
  8
1
  6
Continuous
 62
     7
100
AcDbLine
 10
167.092079
 20
115.948161
 30
0.0
 11
169.1720789999999
 21
115.948161
 31
0.0
  0
ARC
  5
41A
330
1E
100
AcDbEntity
  8
1
  6
Continuous
 62
     7
100
AcDbCircle
 10
169.1720789999999
 20
124.008161
 30
0.0
 40
0.26
100
AcDbArc
 50
270.0
 51
90.0
  0
ARC
  5
41B
330
1E
100
AcDbEntity
  8
1
  6
Continuous
 62
     7
100
AcDbCircle
 10
167.092079
 20
124.008161
 30
0.0
 40
0.26
100
AcDbArc
 50
90.0
 51
270.0
  0
ARC
  5
41C
330
1E
100
AcDbEntity
  8
1
  6
Continuous
 62
     7
100
AcDbCircle
 10
167.092079
 20
124.008161
 30
0.0
 40
0.26
100
AcDbArc
 50
90.0
 51
270.0
  0
ARC
  5
41D
330
1E
100
AcDbEntity
  8
1
  6
Continuous
 62
     7
100
AcDbCircle
 10
169.1720789999999
 20
124.008161
 30
0.0
 40
0.26
100
AcDbArc
 50
270.0
 51
90.0
  0
LINE
  5
41E
330
1E
100
AcDbEntity
  8
1
  6
Continuous
 62
     7
100
AcDbLine
 10
167.092079
 20
124.2681609999999
 30
0.0
 11
169.1720789999999
 21
124.2681609999999
 31
0.0
  0
LINE
  5
41F
330
1E
100
AcDbEntity
  8
1
  6
Continuous
 62
     7
100
AcDbLine
 10
167.092079
 20
124.2681609999999
 30
0.0
 11
169.1720789999999
 21
124.2681609999999
 31
0.0
  0
LINE
  5
420
330
1E
100
AcDbEntity
  8
1
  6
Continuous
 62
     7
100
AcDbLine
 10
167.092079
 20
124.2681609999999
 30
0.0
 11
169.1720789999999
 21
124.2681609999999
 31
0.0
  0
LINE
  5
421
330
1E
100
AcDbEntity
  8
1
  6
Continuous
 62
     7
100
AcDbLine
 10
167.092079
 20
124.2681609999999
 30
0.0
 11
169.1720789999999
 21
124.2681609999999
 31
0.0
  0
ARC
  5
422
330
1E
100
AcDbEntity
  8
1
  6
Continuous
 62
     7
100
AcDbCircle
 10
169.1720789999999
 20
120.108161
 30
0.0
 40
0.26
100
AcDbArc
 50
270.0
 51
90.0
  0
ARC
  5
423
330
1E
100
AcDbEntity
  8
1
  6
Continuous
 62
     7
100
AcDbCircle
 10
167.092079
 20
120.108161
 30
0.0
 40
0.26
100
AcDbArc
 50
90.0
 51
270.0
  0
ARC
  5
424
330
1E
100
AcDbEntity
  8
1
  6
Continuous
 62
     7
100
AcDbCircle
 10
167.092079
 20
120.108161
 30
0.0
 40
0.26
100
AcDbArc
 50
90.0
 51
270.0
  0
ARC
  5
425
330
1E
100
AcDbEntity
  8
1
  6
Continuous
 62
     7
100
AcDbCircle
 10
169.1720789999999
 20
120.108161
 30
0.0
 40
0.26
100
AcDbArc
 50
270.0
 51
90.0
  0
ARC
  5
426
330
1E
100
AcDbEntity
  8
1
  6
Continuous
 62
     7
100
AcDbCircle
 10
169.1720789999999
 20
120.108161
 30
0.0
 40
0.26
100
AcDbArc
 50
270.0
 51
90.0
  0
ARC
  5
427
330
1E
100
AcDbEntity
  8
1
  6
Continuous
 62
     7
100
AcDbCircle
 10
167.092079
 20
120.108161
 30
0.0
 40
0.26
100
AcDbArc
 50
90.0
 51
270.0
  0
ARC
  5
428
330
1E
100
AcDbEntity
  8
1
  6
Continuous
 62
     7
100
AcDbCircle
 10
167.092079
 20
120.108161
 30
0.0
 40
0.26
100
AcDbArc
 50
90.0
 51
270.0
  0
ARC
  5
429
330
1E
100
AcDbEntity
  8
1
  6
Continuous
 62
     7
100
AcDbCircle
 10
169.1720789999999
 20
120.108161
 30
0.0
 40
0.26
100
AcDbArc
 50
270.0
 51
90.0
  0
LINE
  5
42A
330
1E
100
AcDbEntity
  8
1
  6
Continuous
 62
     7
100
AcDbLine
 10
167.092079
 20
119.8481609999999
 30
0.0
 11
169.1720789999999
 21
119.8481609999999
 31
0.0
  0
LINE
  5
42B
330
1E
100
AcDbEntity
  8
1
  6
Continuous
 62
     7
100
AcDbLine
 10
167.092079
 20
119.8481609999999
 30
0.0
 11
169.1720789999999
 21
119.8481609999999
 31
0.0
  0
LINE
  5
42C
330
1E
100
AcDbEntity
  8
1
  6
Continuous
 62
     7
100
AcDbLine
 10
167.092079
 20
119.8481609999999
 30
0.0
 11
169.1720789999999
 21
119.8481609999999
 31
0.0
  0
LINE
  5
42D
330
1E
100
AcDbEntity
  8
1
  6
Continuous
 62
     7
100
AcDbLine
 10
167.092079
 20
119.8481609999999
 30
0.0
 11
169.1720789999999
 21
119.8481609999999
 31
0.0
  0
ARC
  5
42E
330
1E
100
AcDbEntity
  8
1
  6
Continuous
 62
     7
100
AcDbCircle
 10
167.222079
 20
118.158161
 30
0.0
 40
0.26
100
AcDbArc
 50
270.0
 51
90.0
  0
LINE
  5
42F
330
1E
100
AcDbEntity
  8
1
  6
Continuous
 62
     7
100
AcDbLine
 10
165.1420789999999
 20
118.418161
 30
0.0
 11
167.222079
 21
118.418161
 31
0.0
  0
LINE
  5
430
330
1E
100
AcDbEntity
  8
1
  6
Continuous
 62
     7
100
AcDbLine
 10
165.1420789999999
 20
117.898161
 30
0.0
 11
167.222079
 21
117.898161
 31
0.0
  0
ARC
  5
431
330
1E
100
AcDbEntity
  8
1
  6
Continuous
 62
     7
100
AcDbCircle
 10
165.1420789999999
 20
118.158161
 30
0.0
 40
0.26
100
AcDbArc
 50
90.0
 51
270.0
  0
ARC
  5
432
330
1E
100
AcDbEntity
  8
1
  6
Continuous
 62
     7
100
AcDbCircle
 10
165.1420789999999
 20
118.158161
 30
0.0
 40
0.26
100
AcDbArc
 50
90.0
 51
270.0
  0
LINE
  5
433
330
1E
100
AcDbEntity
  8
1
  6
Continuous
 62
     7
100
AcDbLine
 10
165.1420789999999
 20
125.698161
 30
0.0
 11
167.222079
 21
125.698161
 31
0.0
  0
LINE
  5
434
330
1E
100
AcDbEntity
  8
1
  6
Continuous
 62
     7
100
AcDbLine
 10
165.1420789999999
 20
121.798161
 30
0.0
 11
167.222079
 21
121.798161
 31
0.0
  0
ARC
  5
435
330
1E
100
AcDbEntity
  8
1
  6
Continuous
 62
     7
100
AcDbCircle
 10
165.1420789999999
 20
122.058161
 30
0.0
 40
0.26
100
AcDbArc
 50
90.0
 51
270.0
  0
ARC
  5
436
330
1E
100
AcDbEntity
  8
1
  6
Continuous
 62
     7
100
AcDbCircle
 10
165.1420789999999
 20
122.058161
 30
0.0
 40
0.26
100
AcDbArc
 50
90.0
 51
270.0
  0
LINE
  5
437
330
1E
100
AcDbEntity
  8
1
  6
Continuous
 62
     7
100
AcDbLine
 10
165.1420789999999
 20
121.798161
 30
0.0
 11
167.222079
 21
121.798161
 31
0.0
  0
LINE
  5
438
330
1E
100
AcDbEntity
  8
1
  6
Continuous
 62
     7
100
AcDbLine
 10
165.1420789999999
 20
122.318161
 30
0.0
 11
167.222079
 21
122.318161
 31
0.0
  0
ARC
  5
439
330
1E
100
AcDbEntity
  8
1
  6
Continuous
 62
     7
100
AcDbCircle
 10
167.222079
 20
122.058161
 30
0.0
 40
0.26
100
AcDbArc
 50
270.0
 51
90.0
  0
ARC
  5
43A
330
1E
100
AcDbEntity
  8
1
  6
Continuous
 62
     7
100
AcDbCircle
 10
167.222079
 20
122.058161
 30
0.0
 40
0.26
100
AcDbArc
 50
270.0
 51
90.0
  0
LINE
  5
43B
330
1E
100
AcDbEntity
  8
1
  6
Continuous
 62
     7
100
AcDbLine
 10
165.1420789999999
 20
122.318161
 30
0.0
 11
167.222079
 21
122.318161
 31
0.0
  0
LINE
  5
43C
330
1E
100
AcDbEntity
  8
1
  6
Continuous
 62
     7
100
AcDbLine
 10
165.1420789999999
 20
121.798161
 30
0.0
 11
167.222079
 21
121.798161
 31
0.0
  0
ARC
  5
43D
330
1E
100
AcDbEntity
  8
1
  6
Continuous
 62
     7
100
AcDbCircle
 10
165.1420789999999
 20
122.058161
 30
0.0
 40
0.26
100
AcDbArc
 50
90.0
 51
270.0
  0
ARC
  5
43E
330
1E
100
AcDbEntity
  8
1
  6
Continuous
 62
     7
100
AcDbCircle
 10
165.1420789999999
 20
122.058161
 30
0.0
 40
0.26
100
AcDbArc
 50
90.0
 51
270.0
  0
LINE
  5
43F
330
1E
100
AcDbEntity
  8
1
  6
Continuous
 62
     7
100
AcDbLine
 10
165.1420789999999
 20
121.798161
 30
0.0
 11
167.222079
 21
121.798161
 31
0.0
  0
LINE
  5
440
330
1E
100
AcDbEntity
  8
1
  6
Continuous
 62
     7
100
AcDbLine
 10
165.1420789999999
 20
122.318161
 30
0.0
 11
167.222079
 21
122.318161
 31
0.0
  0
ARC
  5
441
330
1E
100
AcDbEntity
  8
1
  6
Continuous
 62
     7
100
AcDbCircle
 10
167.222079
 20
122.058161
 30
0.0
 40
0.26
100
AcDbArc
 50
270.0
 51
90.0
  0
ARC
  5
442
330
1E
100
AcDbEntity
  8
1
  6
Continuous
 62
     7
100
AcDbCircle
 10
167.222079
 20
122.058161
 30
0.0
 40
0.26
100
AcDbArc
 50
270.0
 51
90.0
  0
LINE
  5
443
330
1E
100
AcDbEntity
  8
1
  6
Continuous
 62
     7
100
AcDbLine
 10
165.1420789999999
 20
122.318161
 30
0.0
 11
167.222079
 21
122.318161
 31
0.0
  0
LINE
  5
444
330
1E
100
AcDbEntity
  8
1
  6
Continuous
 62
     7
100
AcDbLine
 10
167.092079
 20
123.748161
 30
0.0
 11
169.1720789999999
 21
123.748161
 31
0.0
  0
LINE
  5
445
330
1E
100
AcDbEntity
  8
1
  6
Continuous
 62
     7
100
AcDbLine
 10
167.092079
 20
123.748161
 30
0.0
 11
169.1720789999999
 21
123.748161
 31
0.0
  0
LINE
  5
446
330
1E
100
AcDbEntity
  8
1
  6
Continuous
 62
     7
100
AcDbLine
 10
167.092079
 20
123.748161
 30
0.0
 11
169.1720789999999
 21
123.748161
 31
0.0
  0
LINE
  5
447
330
1E
100
AcDbEntity
  8
1
  6
Continuous
 62
     7
100
AcDbLine
 10
167.092079
 20
123.748161
 30
0.0
 11
169.1720789999999
 21
123.748161
 31
0.0
  0
ARC
  5
448
330
1E
100
AcDbEntity
  8
1
  6
Continuous
 62
     7
100
AcDbCircle
 10
169.1720789999999
 20
124.008161
 30
0.0
 40
0.26
100
AcDbArc
 50
270.0
 51
90.0
  0
ARC
  5
449
330
1E
100
AcDbEntity
  8
1
  6
Continuous
 62
     7
100
AcDbCircle
 10
167.092079
 20
124.008161
 30
0.0
 40
0.26
100
AcDbArc
 50
90.0
 51
270.0
  0
ARC
  5
44A
330
1E
100
AcDbEntity
  8
1
  6
Continuous
 62
     7
100
AcDbCircle
 10
167.092079
 20
124.008161
 30
0.0
 40
0.26
100
AcDbArc
 50
90.0
 51
270.0
  0
ARC
  5
44B
330
1E
100
AcDbEntity
  8
1
  6
Continuous
 62
     7
100
AcDbCircle
 10
169.1720789999999
 20
124.008161
 30
0.0
 40
0.26
100
AcDbArc
 50
270.0
 51
90.0
  0
LINE
  5
44C
330
1E
100
AcDbEntity
  8
1
  6
Continuous
 62
     7
100
AcDbLine
 10
165.1420789999999
 20
102.818161
 30
0.0
 11
167.222079
 21
102.818161
 31
0.0
  0
ARC
  5
44D
330
1E
100
AcDbEntity
  8
1
  6
Continuous
 62
     7
100
AcDbCircle
 10
167.222079
 20
102.5581609999999
 30
0.0
 40
0.26
100
AcDbArc
 50
270.0
 51
90.0
  0
ARC
  5
44E
330
1E
100
AcDbEntity
  8
1
  6
Continuous
 62
     7
100
AcDbCircle
 10
167.222079
 20
102.5581609999999
 30
0.0
 40
0.26
100
AcDbArc
 50
270.0
 51
90.0
  0
LINE
  5
44F
330
1E
100
AcDbEntity
  8
1
  6
Continuous
 62
     7
100
AcDbLine
 10
165.1420789999999
 20
102.818161
 30
0.0
 11
167.222079
 21
102.818161
 31
0.0
  0
LINE
  5
450
330
1E
100
AcDbEntity
  8
1
  6
Continuous
 62
     7
100
AcDbLine
 10
165.1420789999999
 20
102.2981609999999
 30
0.0
 11
167.222079
 21
102.2981609999999
 31
0.0
  0
ARC
  5
451
330
1E
100
AcDbEntity
  8
1
  6
Continuous
 62
     7
100
AcDbCircle
 10
165.1420789999999
 20
102.5581609999999
 30
0.0
 40
0.26
100
AcDbArc
 50
90.0
 51
270.0
  0
ARC
  5
452
330
1E
100
AcDbEntity
  8
1
  6
Continuous
 62
     7
100
AcDbCircle
 10
165.1420789999999
 20
102.5581609999999
 30
0.0
 40
0.26
100
AcDbArc
 50
90.0
 51
270.0
  0
LINE
  5
453
330
1E
100
AcDbEntity
  8
1
  6
Continuous
 62
     7
100
AcDbLine
 10
165.1420789999999
 20
102.2981609999999
 30
0.0
 11
167.222079
 21
102.2981609999999
 31
0.0
  0
LINE
  5
454
330
1E
100
AcDbEntity
  8
1
  6
Continuous
 62
     7
100
AcDbLine
 10
165.1420789999999
 20
102.818161
 30
0.0
 11
167.222079
 21
102.818161
 31
0.0
  0
ARC
  5
455
330
1E
100
AcDbEntity
  8
1
  6
Continuous
 62
     7
100
AcDbCircle
 10
167.222079
 20
102.5581609999999
 30
0.0
 40
0.26
100
AcDbArc
 50
270.0
 51
90.0
  0
LINE
  5
456
330
1E
100
AcDbEntity
  8
1
  6
Continuous
 62
     7
100
AcDbLine
 10
165.1420789999999
 20
126.218161
 30
0.0
 11
167.222079
 21
126.218161
 31
0.0
  0
ARC
  5
457
330
1E
100
AcDbEntity
  8
1
  6
Continuous
 62
     7
100
AcDbCircle
 10
167.222079
 20
125.958161
 30
0.0
 40
0.26
100
AcDbArc
 50
270.0
 51
90.0
  0
ARC
  5
458
330
1E
100
AcDbEntity
  8
1
  6
Continuous
 62
     7
100
AcDbCircle
 10
167.222079
 20
125.958161
 30
0.0
 40
0.26
100
AcDbArc
 50
270.0
 51
90.0
  0
LINE
  5
459
330
1E
100
AcDbEntity
  8
1
  6
Continuous
 62
     7
100
AcDbLine
 10
165.1420789999999
 20
126.218161
 30
0.0
 11
167.222079
 21
126.218161
 31
0.0
  0
LINE
  5
45A
330
1E
100
AcDbEntity
  8
1
  6
Continuous
 62
     7
100
AcDbLine
 10
165.1420789999999
 20
125.698161
 30
0.0
 11
167.222079
 21
125.698161
 31
0.0
  0
ARC
  5
45B
330
1E
100
AcDbEntity
  8
1
  6
Continuous
 62
     7
100
AcDbCircle
 10
165.1420789999999
 20
125.958161
 30
0.0
 40
0.26
100
AcDbArc
 50
90.0
 51
270.0
  0
ARC
  5
45C
330
1E
100
AcDbEntity
  8
1
  6
Continuous
 62
     7
100
AcDbCircle
 10
165.1420789999999
 20
125.958161
 30
0.0
 40
0.26
100
AcDbArc
 50
90.0
 51
270.0
  0
LINE
  5
45D
330
1E
100
AcDbEntity
  8
1
  6
Continuous
 62
     7
100
AcDbLine
 10
165.1420789999999
 20
125.698161
 30
0.0
 11
167.222079
 21
125.698161
 31
0.0
  0
LINE
  5
45E
330
1E
100
AcDbEntity
  8
1
  6
Continuous
 62
     7
100
AcDbLine
 10
165.1420789999999
 20
126.218161
 30
0.0
 11
167.222079
 21
126.218161
 31
0.0
  0
ARC
  5
45F
330
1E
100
AcDbEntity
  8
1
  6
Continuous
 62
     7
100
AcDbCircle
 10
167.222079
 20
125.958161
 30
0.0
 40
0.26
100
AcDbArc
 50
270.0
 51
90.0
  0
ARC
  5
460
330
1E
100
AcDbEntity
  8
1
  6
Continuous
 62
     7
100
AcDbCircle
 10
167.222079
 20
125.958161
 30
0.0
 40
0.26
100
AcDbArc
 50
270.0
 51
90.0
  0
LINE
  5
461
330
1E
100
AcDbEntity
  8
1
  6
Continuous
 62
     7
100
AcDbLine
 10
165.1420789999999
 20
126.218161
 30
0.0
 11
167.222079
 21
126.218161
 31
0.0
  0
LINE
  5
462
330
1E
100
AcDbEntity
  8
1
  6
Continuous
 62
     7
100
AcDbLine
 10
165.1420789999999
 20
125.698161
 30
0.0
 11
167.222079
 21
125.698161
 31
0.0
  0
ARC
  5
463
330
1E
100
AcDbEntity
  8
1
  6
Continuous
 62
     7
100
AcDbCircle
 10
165.1420789999999
 20
125.958161
 30
0.0
 40
0.26
100
AcDbArc
 50
90.0
 51
270.0
  0
ARC
  5
464
330
1E
100
AcDbEntity
  8
1
  6
Continuous
 62
     7
100
AcDbCircle
 10
165.1420789999999
 20
125.958161
 30
0.0
 40
0.26
100
AcDbArc
 50
90.0
 51
270.0
  0
ARC
  5
465
330
1E
100
AcDbEntity
  8
1
  6
Continuous
 62
     7
100
AcDbCircle
 10
169.1720789999999
 20
100.608161
 30
0.0
 40
0.26
100
AcDbArc
 50
270.0
 51
90.0
  0
LINE
  5
466
330
1E
100
AcDbEntity
  8
1
  6
Continuous
 62
     7
100
AcDbLine
 10
167.092079
 20
100.868161
 30
0.0
 11
169.1720789999999
 21
100.868161
 31
0.0
  0
LINE
  5
467
330
1E
100
AcDbEntity
  8
1
  6
Continuous
 62
     7
100
AcDbLine
 10
167.092079
 20
100.868161
 30
0.0
 11
169.1720789999999
 21
100.868161
 31
0.0
  0
LINE
  5
468
330
1E
100
AcDbEntity
  8
1
  6
Continuous
 62
     7
100
AcDbLine
 10
167.092079
 20
100.868161
 30
0.0
 11
169.1720789999999
 21
100.868161
 31
0.0
  0
LINE
  5
469
330
1E
100
AcDbEntity
  8
1
  6
Continuous
 62
     7
100
AcDbLine
 10
167.092079
 20
100.868161
 30
0.0
 11
169.1720789999999
 21
100.868161
 31
0.0
  0
ARC
  5
46A
330
1E
100
AcDbEntity
  8
1
  6
Continuous
 62
     7
100
AcDbCircle
 10
167.222079
 20
98.65816099999999
 30
0.0
 40
0.26
100
AcDbArc
 50
270.0
 51
90.0
  0
LINE
  5
46B
330
1E
100
AcDbEntity
  8
1
  6
Continuous
 62
     7
100
AcDbLine
 10
165.1420789999999
 20
98.91816099999999
 30
0.0
 11
167.222079
 21
98.91816099999999
 31
0.0
  0
LINE
  5
46C
330
1E
100
AcDbEntity
  8
1
  6
Continuous
 62
     7
100
AcDbLine
 10
165.1420789999999
 20
98.398161
 30
0.0
 11
167.222079
 21
98.398161
 31
0.0
  0
ARC
  5
46D
330
1E
100
AcDbEntity
  8
1
  6
Continuous
 62
     7
100
AcDbCircle
 10
165.1420789999999
 20
98.65816099999999
 30
0.0
 40
0.26
100
AcDbArc
 50
90.0
 51
270.0
  0
ARC
  5
46E
330
1E
100
AcDbEntity
  8
1
  6
Continuous
 62
     7
100
AcDbCircle
 10
165.1420789999999
 20
98.65816099999999
 30
0.0
 40
0.26
100
AcDbArc
 50
90.0
 51
270.0
  0
LINE
  5
46F
330
1E
100
AcDbEntity
  8
1
  6
Continuous
 62
     7
100
AcDbLine
 10
165.1420789999999
 20
98.398161
 30
0.0
 11
167.222079
 21
98.398161
 31
0.0
  0
LINE
  5
470
330
1E
100
AcDbEntity
  8
1
  6
Continuous
 62
     7
100
AcDbLine
 10
165.1420789999999
 20
98.91816099999999
 30
0.0
 11
167.222079
 21
98.91816099999999
 31
0.0
  0
ARC
  5
471
330
1E
100
AcDbEntity
  8
1
  6
Continuous
 62
     7
100
AcDbCircle
 10
167.222079
 20
98.65816099999999
 30
0.0
 40
0.26
100
AcDbArc
 50
270.0
 51
90.0
  0
ARC
  5
472
330
1E
100
AcDbEntity
  8
1
  6
Continuous
 62
     7
100
AcDbCircle
 10
167.222079
 20
98.65816099999999
 30
0.0
 40
0.26
100
AcDbArc
 50
270.0
 51
90.0
  0
LINE
  5
473
330
1E
100
AcDbEntity
  8
1
  6
Continuous
 62
     7
100
AcDbLine
 10
165.1420789999999
 20
98.91816099999999
 30
0.0
 11
167.222079
 21
98.91816099999999
 31
0.0
  0
LINE
  5
474
330
1E
100
AcDbEntity
  8
1
  6
Continuous
 62
     7
100
AcDbLine
 10
167.092079
 20
104.248161
 30
0.0
 11
169.1720789999999
 21
104.248161
 31
0.0
  0
LINE
  5
475
330
1E
100
AcDbEntity
  8
1
  6
Continuous
 62
     7
100
AcDbLine
 10
167.092079
 20
104.248161
 30
0.0
 11
169.1720789999999
 21
104.248161
 31
0.0
  0
LINE
  5
476
330
1E
100
AcDbEntity
  8
1
  6
Continuous
 62
     7
100
AcDbLine
 10
167.092079
 20
104.248161
 30
0.0
 11
169.1720789999999
 21
104.248161
 31
0.0
  0
LINE
  5
477
330
1E
100
AcDbEntity
  8
1
  6
Continuous
 62
     7
100
AcDbLine
 10
167.092079
 20
104.248161
 30
0.0
 11
169.1720789999999
 21
104.248161
 31
0.0
  0
ARC
  5
478
330
1E
100
AcDbEntity
  8
1
  6
Continuous
 62
     7
100
AcDbCircle
 10
167.222079
 20
102.5581609999999
 30
0.0
 40
0.26
100
AcDbArc
 50
270.0
 51
90.0
  0
LINE
  5
479
330
1E
100
AcDbEntity
  8
1
  6
Continuous
 62
     7
100
AcDbLine
 10
165.1420789999999
 20
102.818161
 30
0.0
 11
167.222079
 21
102.818161
 31
0.0
  0
LINE
  5
47A
330
1E
100
AcDbEntity
  8
1
  6
Continuous
 62
     7
100
AcDbLine
 10
165.1420789999999
 20
102.2981609999999
 30
0.0
 11
167.222079
 21
102.2981609999999
 31
0.0
  0
ARC
  5
47B
330
1E
100
AcDbEntity
  8
1
  6
Continuous
 62
     7
100
AcDbCircle
 10
165.1420789999999
 20
102.5581609999999
 30
0.0
 40
0.26
100
AcDbArc
 50
90.0
 51
270.0
  0
ARC
  5
47C
330
1E
100
AcDbEntity
  8
1
  6
Continuous
 62
     7
100
AcDbCircle
 10
165.1420789999999
 20
102.5581609999999
 30
0.0
 40
0.26
100
AcDbArc
 50
90.0
 51
270.0
  0
LINE
  5
47D
330
1E
100
AcDbEntity
  8
1
  6
Continuous
 62
     7
100
AcDbLine
 10
165.1420789999999
 20
102.2981609999999
 30
0.0
 11
167.222079
 21
102.2981609999999
 31
0.0
  0
ARC
  5
47E
330
1E
100
AcDbEntity
  8
1
  6
Continuous
 62
     7
100
AcDbCircle
 10
169.1720789999999
 20
104.5081609999999
 30
0.0
 40
0.26
100
AcDbArc
 50
270.0
 51
90.0
  0
ARC
  5
47F
330
1E
100
AcDbEntity
  8
1
  6
Continuous
 62
     7
100
AcDbCircle
 10
167.092079
 20
104.5081609999999
 30
0.0
 40
0.26
100
AcDbArc
 50
90.0
 51
270.0
  0
ARC
  5
480
330
1E
100
AcDbEntity
  8
1
  6
Continuous
 62
     7
100
AcDbCircle
 10
167.092079
 20
104.5081609999999
 30
0.0
 40
0.26
100
AcDbArc
 50
90.0
 51
270.0
  0
ARC
  5
481
330
1E
100
AcDbEntity
  8
1
  6
Continuous
 62
     7
100
AcDbCircle
 10
169.1720789999999
 20
104.5081609999999
 30
0.0
 40
0.26
100
AcDbArc
 50
270.0
 51
90.0
  0
ARC
  5
482
330
1E
100
AcDbEntity
  8
1
  6
Continuous
 62
     7
100
AcDbCircle
 10
169.1720789999999
 20
104.5081609999999
 30
0.0
 40
0.26
100
AcDbArc
 50
270.0
 51
90.0
  0
ARC
  5
483
330
1E
100
AcDbEntity
  8
1
  6
Continuous
 62
     7
100
AcDbCircle
 10
167.092079
 20
104.5081609999999
 30
0.0
 40
0.26
100
AcDbArc
 50
90.0
 51
270.0
  0
ARC
  5
484
330
1E
100
AcDbEntity
  8
1
  6
Continuous
 62
     7
100
AcDbCircle
 10
167.092079
 20
104.5081609999999
 30
0.0
 40
0.26
100
AcDbArc
 50
90.0
 51
270.0
  0
ARC
  5
485
330
1E
100
AcDbEntity
  8
1
  6
Continuous
 62
     7
100
AcDbCircle
 10
169.1720789999999
 20
104.5081609999999
 30
0.0
 40
0.26
100
AcDbArc
 50
270.0
 51
90.0
  0
LINE
  5
486
330
1E
100
AcDbEntity
  8
1
  6
Continuous
 62
     7
100
AcDbLine
 10
165.1420789999999
 20
98.398161
 30
0.0
 11
167.222079
 21
98.398161
 31
0.0
  0
ARC
  5
487
330
1E
100
AcDbEntity
  8
1
  6
Continuous
 62
     7
100
AcDbCircle
 10
165.1420789999999
 20
98.65816099999999
 30
0.0
 40
0.26
100
AcDbArc
 50
90.0
 51
270.0
  0
ARC
  5
488
330
1E
100
AcDbEntity
  8
1
  6
Continuous
 62
     7
100
AcDbCircle
 10
165.1420789999999
 20
98.65816099999999
 30
0.0
 40
0.26
100
AcDbArc
 50
90.0
 51
270.0
  0
LINE
  5
489
330
1E
100
AcDbEntity
  8
1
  6
Continuous
 62
     7
100
AcDbLine
 10
165.1420789999999
 20
98.398161
 30
0.0
 11
167.222079
 21
98.398161
 31
0.0
  0
LINE
  5
48A
330
1E
100
AcDbEntity
  8
1
  6
Continuous
 62
     7
100
AcDbLine
 10
165.1420789999999
 20
98.91816099999999
 30
0.0
 11
167.222079
 21
98.91816099999999
 31
0.0
  0
ARC
  5
48B
330
1E
100
AcDbEntity
  8
1
  6
Continuous
 62
     7
100
AcDbCircle
 10
167.222079
 20
98.65816099999999
 30
0.0
 40
0.26
100
AcDbArc
 50
270.0
 51
90.0
  0
LINE
  5
48C
330
1E
100
AcDbEntity
  8
1
  6
Continuous
 62
     7
100
AcDbLine
 10
167.092079
 20
100.348161
 30
0.0
 11
169.1720789999999
 21
100.348161
 31
0.0
  0
LINE
  5
48D
330
1E
100
AcDbEntity
  8
1
  6
Continuous
 62
     7
100
AcDbLine
 10
167.092079
 20
100.348161
 30
0.0
 11
169.1720789999999
 21
100.348161
 31
0.0
  0
LINE
  5
48E
330
1E
100
AcDbEntity
  8
1
  6
Continuous
 62
     7
100
AcDbLine
 10
167.092079
 20
100.348161
 30
0.0
 11
169.1720789999999
 21
100.348161
 31
0.0
  0
LINE
  5
48F
330
1E
100
AcDbEntity
  8
1
  6
Continuous
 62
     7
100
AcDbLine
 10
167.092079
 20
100.348161
 30
0.0
 11
169.1720789999999
 21
100.348161
 31
0.0
  0
ARC
  5
490
330
1E
100
AcDbEntity
  8
1
  6
Continuous
 62
     7
100
AcDbCircle
 10
169.1720789999999
 20
100.608161
 30
0.0
 40
0.26
100
AcDbArc
 50
270.0
 51
90.0
  0
ARC
  5
491
330
1E
100
AcDbEntity
  8
1
  6
Continuous
 62
     7
100
AcDbCircle
 10
167.092079
 20
100.608161
 30
0.0
 40
0.26
100
AcDbArc
 50
90.0
 51
270.0
  0
ARC
  5
492
330
1E
100
AcDbEntity
  8
1
  6
Continuous
 62
     7
100
AcDbCircle
 10
167.092079
 20
100.608161
 30
0.0
 40
0.26
100
AcDbArc
 50
90.0
 51
270.0
  0
ARC
  5
493
330
1E
100
AcDbEntity
  8
1
  6
Continuous
 62
     7
100
AcDbCircle
 10
169.1720789999999
 20
100.608161
 30
0.0
 40
0.26
100
AcDbArc
 50
270.0
 51
90.0
  0
ARC
  5
494
330
1E
100
AcDbEntity
  8
1
  6
Continuous
 62
     7
100
AcDbCircle
 10
169.1720789999999
 20
100.608161
 30
0.0
 40
0.26
100
AcDbArc
 50
270.0
 51
90.0
  0
ARC
  5
495
330
1E
100
AcDbEntity
  8
1
  6
Continuous
 62
     7
100
AcDbCircle
 10
167.092079
 20
100.608161
 30
0.0
 40
0.26
100
AcDbArc
 50
90.0
 51
270.0
  0
ARC
  5
496
330
1E
100
AcDbEntity
  8
1
  6
Continuous
 62
     7
100
AcDbCircle
 10
167.092079
 20
100.608161
 30
0.0
 40
0.26
100
AcDbArc
 50
90.0
 51
270.0
  0
LINE
  5
497
330
1E
100
AcDbEntity
  8
1
  6
Continuous
 62
     7
100
AcDbLine
 10
170.9920789999999
 20
108.668161
 30
0.0
 11
173.072079
 21
108.668161
 31
0.0
  0
ARC
  5
498
330
1E
100
AcDbEntity
  8
1
  6
Continuous
 62
     7
100
AcDbCircle
 10
171.122079
 20
106.458161
 30
0.0
 40
0.26
100
AcDbArc
 50
270.0
 51
90.0
  0
LINE
  5
499
330
1E
100
AcDbEntity
  8
1
  6
Continuous
 62
     7
100
AcDbLine
 10
169.042079
 20
106.718161
 30
0.0
 11
171.122079
 21
106.718161
 31
0.0
  0
LINE
  5
49A
330
1E
100
AcDbEntity
  8
1
  6
Continuous
 62
     7
100
AcDbLine
 10
169.042079
 20
106.198161
 30
0.0
 11
171.122079
 21
106.198161
 31
0.0
  0
ARC
  5
49B
330
1E
100
AcDbEntity
  8
1
  6
Continuous
 62
     7
100
AcDbCircle
 10
169.042079
 20
106.458161
 30
0.0
 40
0.26
100
AcDbArc
 50
90.0
 51
270.0
  0
ARC
  5
49C
330
1E
100
AcDbEntity
  8
1
  6
Continuous
 62
     7
100
AcDbCircle
 10
169.042079
 20
106.458161
 30
0.0
 40
0.26
100
AcDbArc
 50
90.0
 51
270.0
  0
LINE
  5
49D
330
1E
100
AcDbEntity
  8
1
  6
Continuous
 62
     7
100
AcDbLine
 10
169.042079
 20
106.198161
 30
0.0
 11
171.122079
 21
106.198161
 31
0.0
  0
LINE
  5
49E
330
1E
100
AcDbEntity
  8
1
  6
Continuous
 62
     7
100
AcDbLine
 10
169.042079
 20
106.718161
 30
0.0
 11
171.122079
 21
106.718161
 31
0.0
  0
ARC
  5
49F
330
1E
100
AcDbEntity
  8
1
  6
Continuous
 62
     7
100
AcDbCircle
 10
171.122079
 20
106.458161
 30
0.0
 40
0.26
100
AcDbArc
 50
270.0
 51
90.0
  0
ARC
  5
4A0
330
1E
100
AcDbEntity
  8
1
  6
Continuous
 62
     7
100
AcDbCircle
 10
171.122079
 20
106.458161
 30
0.0
 40
0.26
100
AcDbArc
 50
270.0
 51
90.0
  0
LINE
  5
4A1
330
1E
100
AcDbEntity
  8
1
  6
Continuous
 62
     7
100
AcDbLine
 10
169.042079
 20
106.718161
 30
0.0
 11
171.122079
 21
106.718161
 31
0.0
  0
LINE
  5
4A2
330
1E
100
AcDbEntity
  8
1
  6
Continuous
 62
     7
100
AcDbLine
 10
170.9920789999999
 20
104.7681609999999
 30
0.0
 11
173.072079
 21
104.7681609999999
 31
0.0
  0
LINE
  5
4A3
330
1E
100
AcDbEntity
  8
1
  6
Continuous
 62
     7
100
AcDbLine
 10
170.9920789999999
 20
104.7681609999999
 30
0.0
 11
173.072079
 21
104.7681609999999
 31
0.0
  0
LINE
  5
4A4
330
1E
100
AcDbEntity
  8
1
  6
Continuous
 62
     7
100
AcDbLine
 10
170.9920789999999
 20
104.7681609999999
 30
0.0
 11
173.072079
 21
104.7681609999999
 31
0.0
  0
LINE
  5
4A5
330
1E
100
AcDbEntity
  8
1
  6
Continuous
 62
     7
100
AcDbLine
 10
170.9920789999999
 20
104.7681609999999
 30
0.0
 11
173.072079
 21
104.7681609999999
 31
0.0
  0
LINE
  5
4A6
330
1E
100
AcDbEntity
  8
1
  6
Continuous
 62
     7
100
AcDbLine
 10
170.9920789999999
 20
112.5681609999999
 30
0.0
 11
173.072079
 21
112.5681609999999
 31
0.0
  0
LINE
  5
4A7
330
1E
100
AcDbEntity
  8
1
  6
Continuous
 62
     7
100
AcDbLine
 10
170.9920789999999
 20
112.5681609999999
 30
0.0
 11
173.072079
 21
112.5681609999999
 31
0.0
  0
LINE
  5
4A8
330
1E
100
AcDbEntity
  8
1
  6
Continuous
 62
     7
100
AcDbLine
 10
170.9920789999999
 20
112.5681609999999
 30
0.0
 11
173.072079
 21
112.5681609999999
 31
0.0
  0
LINE
  5
4A9
330
1E
100
AcDbEntity
  8
1
  6
Continuous
 62
     7
100
AcDbLine
 10
170.9920789999999
 20
112.5681609999999
 30
0.0
 11
173.072079
 21
112.5681609999999
 31
0.0
  0
LINE
  5
4AA
330
1E
100
AcDbEntity
  8
1
  6
Continuous
 62
     7
100
AcDbLine
 10
169.042079
 20
106.198161
 30
0.0
 11
171.122079
 21
106.198161
 31
0.0
  0
ARC
  5
4AB
330
1E
100
AcDbEntity
  8
1
  6
Continuous
 62
     7
100
AcDbCircle
 10
169.042079
 20
106.458161
 30
0.0
 40
0.26
100
AcDbArc
 50
90.0
 51
270.0
  0
ARC
  5
4AC
330
1E
100
AcDbEntity
  8
1
  6
Continuous
 62
     7
100
AcDbCircle
 10
169.042079
 20
106.458161
 30
0.0
 40
0.26
100
AcDbArc
 50
90.0
 51
270.0
  0
LINE
  5
4AD
330
1E
100
AcDbEntity
  8
1
  6
Continuous
 62
     7
100
AcDbLine
 10
169.042079
 20
106.198161
 30
0.0
 11
171.122079
 21
106.198161
 31
0.0
  0
LINE
  5
4AE
330
1E
100
AcDbEntity
  8
1
  6
Continuous
 62
     7
100
AcDbLine
 10
169.042079
 20
106.718161
 30
0.0
 11
171.122079
 21
106.718161
 31
0.0
  0
ARC
  5
4AF
330
1E
100
AcDbEntity
  8
1
  6
Continuous
 62
     7
100
AcDbCircle
 10
171.122079
 20
106.458161
 30
0.0
 40
0.26
100
AcDbArc
 50
270.0
 51
90.0
  0
LINE
  5
4B0
330
1E
100
AcDbEntity
  8
1
  6
Continuous
 62
     7
100
AcDbLine
 10
170.9920789999999
 20
108.148161
 30
0.0
 11
173.072079
 21
108.148161
 31
0.0
  0
LINE
  5
4B1
330
1E
100
AcDbEntity
  8
1
  6
Continuous
 62
     7
100
AcDbLine
 10
170.9920789999999
 20
108.148161
 30
0.0
 11
173.072079
 21
108.148161
 31
0.0
  0
LINE
  5
4B2
330
1E
100
AcDbEntity
  8
1
  6
Continuous
 62
     7
100
AcDbLine
 10
170.9920789999999
 20
108.148161
 30
0.0
 11
173.072079
 21
108.148161
 31
0.0
  0
LINE
  5
4B3
330
1E
100
AcDbEntity
  8
1
  6
Continuous
 62
     7
100
AcDbLine
 10
170.9920789999999
 20
108.148161
 30
0.0
 11
173.072079
 21
108.148161
 31
0.0
  0
ARC
  5
4B4
330
1E
100
AcDbEntity
  8
1
  6
Continuous
 62
     7
100
AcDbCircle
 10
173.072079
 20
108.408161
 30
0.0
 40
0.26
100
AcDbArc
 50
270.0
 51
90.0
  0
ARC
  5
4B5
330
1E
100
AcDbEntity
  8
1
  6
Continuous
 62
     7
100
AcDbCircle
 10
170.9920789999999
 20
108.408161
 30
0.0
 40
0.26
100
AcDbArc
 50
90.0
 51
270.0
  0
ARC
  5
4B6
330
1E
100
AcDbEntity
  8
1
  6
Continuous
 62
     7
100
AcDbCircle
 10
170.9920789999999
 20
108.408161
 30
0.0
 40
0.26
100
AcDbArc
 50
90.0
 51
270.0
  0
ARC
  5
4B7
330
1E
100
AcDbEntity
  8
1
  6
Continuous
 62
     7
100
AcDbCircle
 10
173.072079
 20
108.408161
 30
0.0
 40
0.26
100
AcDbArc
 50
270.0
 51
90.0
  0
ARC
  5
4B8
330
1E
100
AcDbEntity
  8
1
  6
Continuous
 62
     7
100
AcDbCircle
 10
173.072079
 20
108.408161
 30
0.0
 40
0.26
100
AcDbArc
 50
270.0
 51
90.0
  0
ARC
  5
4B9
330
1E
100
AcDbEntity
  8
1
  6
Continuous
 62
     7
100
AcDbCircle
 10
170.9920789999999
 20
108.408161
 30
0.0
 40
0.26
100
AcDbArc
 50
90.0
 51
270.0
  0
ARC
  5
4BA
330
1E
100
AcDbEntity
  8
1
  6
Continuous
 62
     7
100
AcDbCircle
 10
170.9920789999999
 20
108.408161
 30
0.0
 40
0.26
100
AcDbArc
 50
90.0
 51
270.0
  0
ARC
  5
4BB
330
1E
100
AcDbEntity
  8
1
  6
Continuous
 62
     7
100
AcDbCircle
 10
173.072079
 20
108.408161
 30
0.0
 40
0.26
100
AcDbArc
 50
270.0
 51
90.0
  0
LINE
  5
4BC
330
1E
100
AcDbEntity
  8
1
  6
Continuous
 62
     7
100
AcDbLine
 10
170.9920789999999
 20
108.668161
 30
0.0
 11
173.072079
 21
108.668161
 31
0.0
  0
LINE
  5
4BD
330
1E
100
AcDbEntity
  8
1
  6
Continuous
 62
     7
100
AcDbLine
 10
170.9920789999999
 20
108.668161
 30
0.0
 11
173.072079
 21
108.668161
 31
0.0
  0
LINE
  5
4BE
330
1E
100
AcDbEntity
  8
1
  6
Continuous
 62
     7
100
AcDbLine
 10
170.9920789999999
 20
108.668161
 30
0.0
 11
173.072079
 21
108.668161
 31
0.0
  0
ARC
  5
4BF
330
1E
100
AcDbEntity
  8
1
  6
Continuous
 62
     7
100
AcDbCircle
 10
173.072079
 20
112.308161
 30
0.0
 40
0.26
100
AcDbArc
 50
270.0
 51
90.0
  0
ARC
  5
4C0
330
1E
100
AcDbEntity
  8
1
  6
Continuous
 62
     7
100
AcDbCircle
 10
173.072079
 20
112.308161
 30
0.0
 40
0.26
100
AcDbArc
 50
270.0
 51
90.0
  0
ARC
  5
4C1
330
1E
100
AcDbEntity
  8
1
  6
Continuous
 62
     7
100
AcDbCircle
 10
170.9920789999999
 20
112.308161
 30
0.0
 40
0.26
100
AcDbArc
 50
90.0
 51
270.0
  0
ARC
  5
4C2
330
1E
100
AcDbEntity
  8
1
  6
Continuous
 62
     7
100
AcDbCircle
 10
170.9920789999999
 20
112.308161
 30
0.0
 40
0.26
100
AcDbArc
 50
90.0
 51
270.0
  0
ARC
  5
4C3
330
1E
100
AcDbEntity
  8
1
  6
Continuous
 62
     7
100
AcDbCircle
 10
173.072079
 20
112.308161
 30
0.0
 40
0.26
100
AcDbArc
 50
270.0
 51
90.0
  0
LINE
  5
4C4
330
1E
100
AcDbEntity
  8
1
  6
Continuous
 62
     7
100
AcDbLine
 10
170.9920789999999
 20
112.048161
 30
0.0
 11
173.072079
 21
112.048161
 31
0.0
  0
LINE
  5
4C5
330
1E
100
AcDbEntity
  8
1
  6
Continuous
 62
     7
100
AcDbLine
 10
170.9920789999999
 20
112.048161
 30
0.0
 11
173.072079
 21
112.048161
 31
0.0
  0
LINE
  5
4C6
330
1E
100
AcDbEntity
  8
1
  6
Continuous
 62
     7
100
AcDbLine
 10
170.9920789999999
 20
112.048161
 30
0.0
 11
173.072079
 21
112.048161
 31
0.0
  0
LINE
  5
4C7
330
1E
100
AcDbEntity
  8
1
  6
Continuous
 62
     7
100
AcDbLine
 10
170.9920789999999
 20
112.048161
 30
0.0
 11
173.072079
 21
112.048161
 31
0.0
  0
ARC
  5
4C8
330
1E
100
AcDbEntity
  8
1
  6
Continuous
 62
     7
100
AcDbCircle
 10
171.122079
 20
110.358161
 30
0.0
 40
0.26
100
AcDbArc
 50
270.0
 51
90.0
  0
LINE
  5
4C9
330
1E
100
AcDbEntity
  8
1
  6
Continuous
 62
     7
100
AcDbLine
 10
169.042079
 20
110.618161
 30
0.0
 11
171.122079
 21
110.618161
 31
0.0
  0
LINE
  5
4CA
330
1E
100
AcDbEntity
  8
1
  6
Continuous
 62
     7
100
AcDbLine
 10
169.042079
 20
110.098161
 30
0.0
 11
171.122079
 21
110.098161
 31
0.0
  0
ARC
  5
4CB
330
1E
100
AcDbEntity
  8
1
  6
Continuous
 62
     7
100
AcDbCircle
 10
169.042079
 20
110.358161
 30
0.0
 40
0.26
100
AcDbArc
 50
90.0
 51
270.0
  0
ARC
  5
4CC
330
1E
100
AcDbEntity
  8
1
  6
Continuous
 62
     7
100
AcDbCircle
 10
169.042079
 20
110.358161
 30
0.0
 40
0.26
100
AcDbArc
 50
90.0
 51
270.0
  0
LINE
  5
4CD
330
1E
100
AcDbEntity
  8
1
  6
Continuous
 62
     7
100
AcDbLine
 10
169.042079
 20
110.098161
 30
0.0
 11
171.122079
 21
110.098161
 31
0.0
  0
LINE
  5
4CE
330
1E
100
AcDbEntity
  8
1
  6
Continuous
 62
     7
100
AcDbLine
 10
169.042079
 20
110.618161
 30
0.0
 11
171.122079
 21
110.618161
 31
0.0
  0
ARC
  5
4CF
330
1E
100
AcDbEntity
  8
1
  6
Continuous
 62
     7
100
AcDbCircle
 10
171.122079
 20
110.358161
 30
0.0
 40
0.26
100
AcDbArc
 50
270.0
 51
90.0
  0
ARC
  5
4D0
330
1E
100
AcDbEntity
  8
1
  6
Continuous
 62
     7
100
AcDbCircle
 10
171.122079
 20
110.358161
 30
0.0
 40
0.26
100
AcDbArc
 50
270.0
 51
90.0
  0
LINE
  5
4D1
330
1E
100
AcDbEntity
  8
1
  6
Continuous
 62
     7
100
AcDbLine
 10
169.042079
 20
110.618161
 30
0.0
 11
171.122079
 21
110.618161
 31
0.0
  0
LINE
  5
4D2
330
1E
100
AcDbEntity
  8
1
  6
Continuous
 62
     7
100
AcDbLine
 10
169.042079
 20
110.098161
 30
0.0
 11
171.122079
 21
110.098161
 31
0.0
  0
ARC
  5
4D3
330
1E
100
AcDbEntity
  8
1
  6
Continuous
 62
     7
100
AcDbCircle
 10
169.042079
 20
110.358161
 30
0.0
 40
0.26
100
AcDbArc
 50
90.0
 51
270.0
  0
ARC
  5
4D4
330
1E
100
AcDbEntity
  8
1
  6
Continuous
 62
     7
100
AcDbCircle
 10
169.042079
 20
110.358161
 30
0.0
 40
0.26
100
AcDbArc
 50
90.0
 51
270.0
  0
LINE
  5
4D5
330
1E
100
AcDbEntity
  8
1
  6
Continuous
 62
     7
100
AcDbLine
 10
169.042079
 20
110.098161
 30
0.0
 11
171.122079
 21
110.098161
 31
0.0
  0
LINE
  5
4D6
330
1E
100
AcDbEntity
  8
1
  6
Continuous
 62
     7
100
AcDbLine
 10
169.042079
 20
110.618161
 30
0.0
 11
171.122079
 21
110.618161
 31
0.0
  0
ARC
  5
4D7
330
1E
100
AcDbEntity
  8
1
  6
Continuous
 62
     7
100
AcDbCircle
 10
171.122079
 20
110.358161
 30
0.0
 40
0.26
100
AcDbArc
 50
270.0
 51
90.0
  0
ARC
  5
4D8
330
1E
100
AcDbEntity
  8
1
  6
Continuous
 62
     7
100
AcDbCircle
 10
173.072079
 20
116.2081609999999
 30
0.0
 40
0.26
100
AcDbArc
 50
270.0
 51
90.0
  0
ARC
  5
4D9
330
1E
100
AcDbEntity
  8
1
  6
Continuous
 62
     7
100
AcDbCircle
 10
170.9920789999999
 20
116.2081609999999
 30
0.0
 40
0.26
100
AcDbArc
 50
90.0
 51
270.0
  0
ARC
  5
4DA
330
1E
100
AcDbEntity
  8
1
  6
Continuous
 62
     7
100
AcDbCircle
 10
170.9920789999999
 20
116.2081609999999
 30
0.0
 40
0.26
100
AcDbArc
 50
90.0
 51
270.0
  0
ARC
  5
4DB
330
1E
100
AcDbEntity
  8
1
  6
Continuous
 62
     7
100
AcDbCircle
 10
173.072079
 20
116.2081609999999
 30
0.0
 40
0.26
100
AcDbArc
 50
270.0
 51
90.0
  0
ARC
  5
4DC
330
1E
100
AcDbEntity
  8
1
  6
Continuous
 62
     7
100
AcDbCircle
 10
173.072079
 20
116.2081609999999
 30
0.0
 40
0.26
100
AcDbArc
 50
270.0
 51
90.0
  0
ARC
  5
4DD
330
1E
100
AcDbEntity
  8
1
  6
Continuous
 62
     7
100
AcDbCircle
 10
170.9920789999999
 20
116.2081609999999
 30
0.0
 40
0.26
100
AcDbArc
 50
90.0
 51
270.0
  0
ARC
  5
4DE
330
1E
100
AcDbEntity
  8
1
  6
Continuous
 62
     7
100
AcDbCircle
 10
170.9920789999999
 20
116.2081609999999
 30
0.0
 40
0.26
100
AcDbArc
 50
90.0
 51
270.0
  0
ARC
  5
4DF
330
1E
100
AcDbEntity
  8
1
  6
Continuous
 62
     7
100
AcDbCircle
 10
173.072079
 20
116.2081609999999
 30
0.0
 40
0.26
100
AcDbArc
 50
270.0
 51
90.0
  0
LINE
  5
4E0
330
1E
100
AcDbEntity
  8
1
  6
Continuous
 62
     7
100
AcDbLine
 10
170.9920789999999
 20
116.468161
 30
0.0
 11
173.072079
 21
116.468161
 31
0.0
  0
LINE
  5
4E1
330
1E
100
AcDbEntity
  8
1
  6
Continuous
 62
     7
100
AcDbLine
 10
170.9920789999999
 20
116.468161
 30
0.0
 11
173.072079
 21
116.468161
 31
0.0
  0
LINE
  5
4E2
330
1E
100
AcDbEntity
  8
1
  6
Continuous
 62
     7
100
AcDbLine
 10
170.9920789999999
 20
116.468161
 30
0.0
 11
173.072079
 21
116.468161
 31
0.0
  0
LINE
  5
4E3
330
1E
100
AcDbEntity
  8
1
  6
Continuous
 62
     7
100
AcDbLine
 10
170.9920789999999
 20
116.468161
 30
0.0
 11
173.072079
 21
116.468161
 31
0.0
  0
ARC
  5
4E4
330
1E
100
AcDbEntity
  8
1
  6
Continuous
 62
     7
100
AcDbCircle
 10
171.122079
 20
114.258161
 30
0.0
 40
0.26
100
AcDbArc
 50
270.0
 51
90.0
  0
LINE
  5
4E5
330
1E
100
AcDbEntity
  8
1
  6
Continuous
 62
     7
100
AcDbLine
 10
169.042079
 20
114.518161
 30
0.0
 11
171.122079
 21
114.518161
 31
0.0
  0
LINE
  5
4E6
330
1E
100
AcDbEntity
  8
1
  6
Continuous
 62
     7
100
AcDbLine
 10
169.042079
 20
113.998161
 30
0.0
 11
171.122079
 21
113.998161
 31
0.0
  0
ARC
  5
4E7
330
1E
100
AcDbEntity
  8
1
  6
Continuous
 62
     7
100
AcDbCircle
 10
169.042079
 20
114.258161
 30
0.0
 40
0.26
100
AcDbArc
 50
90.0
 51
270.0
  0
ARC
  5
4E8
330
1E
100
AcDbEntity
  8
1
  6
Continuous
 62
     7
100
AcDbCircle
 10
169.042079
 20
114.258161
 30
0.0
 40
0.26
100
AcDbArc
 50
90.0
 51
270.0
  0
LINE
  5
4E9
330
1E
100
AcDbEntity
  8
1
  6
Continuous
 62
     7
100
AcDbLine
 10
169.042079
 20
113.998161
 30
0.0
 11
171.122079
 21
113.998161
 31
0.0
  0
LINE
  5
4EA
330
1E
100
AcDbEntity
  8
1
  6
Continuous
 62
     7
100
AcDbLine
 10
169.042079
 20
114.518161
 30
0.0
 11
171.122079
 21
114.518161
 31
0.0
  0
ARC
  5
4EB
330
1E
100
AcDbEntity
  8
1
  6
Continuous
 62
     7
100
AcDbCircle
 10
171.122079
 20
114.258161
 30
0.0
 40
0.26
100
AcDbArc
 50
270.0
 51
90.0
  0
ARC
  5
4EC
330
1E
100
AcDbEntity
  8
1
  6
Continuous
 62
     7
100
AcDbCircle
 10
171.122079
 20
114.258161
 30
0.0
 40
0.26
100
AcDbArc
 50
270.0
 51
90.0
  0
LINE
  5
4ED
330
1E
100
AcDbEntity
  8
1
  6
Continuous
 62
     7
100
AcDbLine
 10
169.042079
 20
114.518161
 30
0.0
 11
171.122079
 21
114.518161
 31
0.0
  0
ARC
  5
4EE
330
1E
100
AcDbEntity
  8
1
  6
Continuous
 62
     7
100
AcDbCircle
 10
173.072079
 20
112.308161
 30
0.0
 40
0.26
100
AcDbArc
 50
270.0
 51
90.0
  0
ARC
  5
4EF
330
1E
100
AcDbEntity
  8
1
  6
Continuous
 62
     7
100
AcDbCircle
 10
170.9920789999999
 20
112.308161
 30
0.0
 40
0.26
100
AcDbArc
 50
90.0
 51
270.0
  0
ARC
  5
4F0
330
1E
100
AcDbEntity
  8
1
  6
Continuous
 62
     7
100
AcDbCircle
 10
170.9920789999999
 20
112.308161
 30
0.0
 40
0.26
100
AcDbArc
 50
90.0
 51
270.0
  0
LINE
  5
4F1
330
1E
100
AcDbEntity
  8
1
  6
Continuous
 62
     7
100
AcDbLine
 10
169.042079
 20
117.898161
 30
0.0
 11
171.122079
 21
117.898161
 31
0.0
  0
LINE
  5
4F2
330
1E
100
AcDbEntity
  8
1
  6
Continuous
 62
     7
100
AcDbLine
 10
169.042079
 20
118.418161
 30
0.0
 11
171.122079
 21
118.418161
 31
0.0
  0
ARC
  5
4F3
330
1E
100
AcDbEntity
  8
1
  6
Continuous
 62
     7
100
AcDbCircle
 10
171.122079
 20
118.158161
 30
0.0
 40
0.26
100
AcDbArc
 50
270.0
 51
90.0
  0
ARC
  5
4F4
330
1E
100
AcDbEntity
  8
1
  6
Continuous
 62
     7
100
AcDbCircle
 10
171.122079
 20
118.158161
 30
0.0
 40
0.26
100
AcDbArc
 50
270.0
 51
90.0
  0
LINE
  5
4F5
330
1E
100
AcDbEntity
  8
1
  6
Continuous
 62
     7
100
AcDbLine
 10
169.042079
 20
118.418161
 30
0.0
 11
171.122079
 21
118.418161
 31
0.0
  0
LINE
  5
4F6
330
1E
100
AcDbEntity
  8
1
  6
Continuous
 62
     7
100
AcDbLine
 10
169.042079
 20
117.898161
 30
0.0
 11
171.122079
 21
117.898161
 31
0.0
  0
ARC
  5
4F7
330
1E
100
AcDbEntity
  8
1
  6
Continuous
 62
     7
100
AcDbCircle
 10
169.042079
 20
118.158161
 30
0.0
 40
0.26
100
AcDbArc
 50
90.0
 51
270.0
  0
ARC
  5
4F8
330
1E
100
AcDbEntity
  8
1
  6
Continuous
 62
     7
100
AcDbCircle
 10
169.042079
 20
118.158161
 30
0.0
 40
0.26
100
AcDbArc
 50
90.0
 51
270.0
  0
LINE
  5
4F9
330
1E
100
AcDbEntity
  8
1
  6
Continuous
 62
     7
100
AcDbLine
 10
169.042079
 20
117.898161
 30
0.0
 11
171.122079
 21
117.898161
 31
0.0
  0
LINE
  5
4FA
330
1E
100
AcDbEntity
  8
1
  6
Continuous
 62
     7
100
AcDbLine
 10
169.042079
 20
118.418161
 30
0.0
 11
171.122079
 21
118.418161
 31
0.0
  0
ARC
  5
4FB
330
1E
100
AcDbEntity
  8
1
  6
Continuous
 62
     7
100
AcDbCircle
 10
171.122079
 20
118.158161
 30
0.0
 40
0.26
100
AcDbArc
 50
270.0
 51
90.0
  0
LINE
  5
4FC
330
1E
100
AcDbEntity
  8
1
  6
Continuous
 62
     7
100
AcDbLine
 10
170.9920789999999
 20
120.368161
 30
0.0
 11
173.072079
 21
120.368161
 31
0.0
  0
LINE
  5
4FD
330
1E
100
AcDbEntity
  8
1
  6
Continuous
 62
     7
100
AcDbLine
 10
170.9920789999999
 20
120.368161
 30
0.0
 11
173.072079
 21
120.368161
 31
0.0
  0
LINE
  5
4FE
330
1E
100
AcDbEntity
  8
1
  6
Continuous
 62
     7
100
AcDbLine
 10
170.9920789999999
 20
120.368161
 30
0.0
 11
173.072079
 21
120.368161
 31
0.0
  0
LINE
  5
4FF
330
1E
100
AcDbEntity
  8
1
  6
Continuous
 62
     7
100
AcDbLine
 10
170.9920789999999
 20
120.368161
 30
0.0
 11
173.072079
 21
120.368161
 31
0.0
  0
LINE
  5
500
330
1E
100
AcDbEntity
  8
1
  6
Continuous
 62
     7
100
AcDbLine
 10
169.042079
 20
113.998161
 30
0.0
 11
171.122079
 21
113.998161
 31
0.0
  0
ARC
  5
501
330
1E
100
AcDbEntity
  8
1
  6
Continuous
 62
     7
100
AcDbCircle
 10
169.042079
 20
114.258161
 30
0.0
 40
0.26
100
AcDbArc
 50
90.0
 51
270.0
  0
ARC
  5
502
330
1E
100
AcDbEntity
  8
1
  6
Continuous
 62
     7
100
AcDbCircle
 10
169.042079
 20
114.258161
 30
0.0
 40
0.26
100
AcDbArc
 50
90.0
 51
270.0
  0
LINE
  5
503
330
1E
100
AcDbEntity
  8
1
  6
Continuous
 62
     7
100
AcDbLine
 10
169.042079
 20
113.998161
 30
0.0
 11
171.122079
 21
113.998161
 31
0.0
  0
LINE
  5
504
330
1E
100
AcDbEntity
  8
1
  6
Continuous
 62
     7
100
AcDbLine
 10
169.042079
 20
114.518161
 30
0.0
 11
171.122079
 21
114.518161
 31
0.0
  0
ARC
  5
505
330
1E
100
AcDbEntity
  8
1
  6
Continuous
 62
     7
100
AcDbCircle
 10
171.122079
 20
114.258161
 30
0.0
 40
0.26
100
AcDbArc
 50
270.0
 51
90.0
  0
LINE
  5
506
330
1E
100
AcDbEntity
  8
1
  6
Continuous
 62
     7
100
AcDbLine
 10
170.9920789999999
 20
115.948161
 30
0.0
 11
173.072079
 21
115.948161
 31
0.0
  0
LINE
  5
507
330
1E
100
AcDbEntity
  8
1
  6
Continuous
 62
     7
100
AcDbLine
 10
170.9920789999999
 20
115.948161
 30
0.0
 11
173.072079
 21
115.948161
 31
0.0
  0
LINE
  5
508
330
1E
100
AcDbEntity
  8
1
  6
Continuous
 62
     7
100
AcDbLine
 10
170.9920789999999
 20
115.948161
 30
0.0
 11
173.072079
 21
115.948161
 31
0.0
  0
LINE
  5
509
330
1E
100
AcDbEntity
  8
1
  6
Continuous
 62
     7
100
AcDbLine
 10
170.9920789999999
 20
115.948161
 30
0.0
 11
173.072079
 21
115.948161
 31
0.0
  0
ARC
  5
50A
330
1E
100
AcDbEntity
  8
1
  6
Continuous
 62
     7
100
AcDbCircle
 10
173.072079
 20
124.008161
 30
0.0
 40
0.26
100
AcDbArc
 50
270.0
 51
90.0
  0
ARC
  5
50B
330
1E
100
AcDbEntity
  8
1
  6
Continuous
 62
     7
100
AcDbCircle
 10
170.9920789999999
 20
124.008161
 30
0.0
 40
0.26
100
AcDbArc
 50
90.0
 51
270.0
  0
ARC
  5
50C
330
1E
100
AcDbEntity
  8
1
  6
Continuous
 62
     7
100
AcDbCircle
 10
170.9920789999999
 20
124.008161
 30
0.0
 40
0.26
100
AcDbArc
 50
90.0
 51
270.0
  0
ARC
  5
50D
330
1E
100
AcDbEntity
  8
1
  6
Continuous
 62
     7
100
AcDbCircle
 10
173.072079
 20
124.008161
 30
0.0
 40
0.26
100
AcDbArc
 50
270.0
 51
90.0
  0
LINE
  5
50E
330
1E
100
AcDbEntity
  8
1
  6
Continuous
 62
     7
100
AcDbLine
 10
170.9920789999999
 20
124.2681609999999
 30
0.0
 11
173.072079
 21
124.2681609999999
 31
0.0
  0
LINE
  5
50F
330
1E
100
AcDbEntity
  8
1
  6
Continuous
 62
     7
100
AcDbLine
 10
170.9920789999999
 20
124.2681609999999
 30
0.0
 11
173.072079
 21
124.2681609999999
 31
0.0
  0
LINE
  5
510
330
1E
100
AcDbEntity
  8
1
  6
Continuous
 62
     7
100
AcDbLine
 10
170.9920789999999
 20
124.2681609999999
 30
0.0
 11
173.072079
 21
124.2681609999999
 31
0.0
  0
LINE
  5
511
330
1E
100
AcDbEntity
  8
1
  6
Continuous
 62
     7
100
AcDbLine
 10
170.9920789999999
 20
124.2681609999999
 30
0.0
 11
173.072079
 21
124.2681609999999
 31
0.0
  0
ARC
  5
512
330
1E
100
AcDbEntity
  8
1
  6
Continuous
 62
     7
100
AcDbCircle
 10
173.072079
 20
120.108161
 30
0.0
 40
0.26
100
AcDbArc
 50
270.0
 51
90.0
  0
ARC
  5
513
330
1E
100
AcDbEntity
  8
1
  6
Continuous
 62
     7
100
AcDbCircle
 10
170.9920789999999
 20
120.108161
 30
0.0
 40
0.26
100
AcDbArc
 50
90.0
 51
270.0
  0
ARC
  5
514
330
1E
100
AcDbEntity
  8
1
  6
Continuous
 62
     7
100
AcDbCircle
 10
170.9920789999999
 20
120.108161
 30
0.0
 40
0.26
100
AcDbArc
 50
90.0
 51
270.0
  0
ARC
  5
515
330
1E
100
AcDbEntity
  8
1
  6
Continuous
 62
     7
100
AcDbCircle
 10
173.072079
 20
120.108161
 30
0.0
 40
0.26
100
AcDbArc
 50
270.0
 51
90.0
  0
ARC
  5
516
330
1E
100
AcDbEntity
  8
1
  6
Continuous
 62
     7
100
AcDbCircle
 10
173.072079
 20
120.108161
 30
0.0
 40
0.26
100
AcDbArc
 50
270.0
 51
90.0
  0
ARC
  5
517
330
1E
100
AcDbEntity
  8
1
  6
Continuous
 62
     7
100
AcDbCircle
 10
170.9920789999999
 20
120.108161
 30
0.0
 40
0.26
100
AcDbArc
 50
90.0
 51
270.0
  0
ARC
  5
518
330
1E
100
AcDbEntity
  8
1
  6
Continuous
 62
     7
100
AcDbCircle
 10
170.9920789999999
 20
120.108161
 30
0.0
 40
0.26
100
AcDbArc
 50
90.0
 51
270.0
  0
ARC
  5
519
330
1E
100
AcDbEntity
  8
1
  6
Continuous
 62
     7
100
AcDbCircle
 10
173.072079
 20
120.108161
 30
0.0
 40
0.26
100
AcDbArc
 50
270.0
 51
90.0
  0
LINE
  5
51A
330
1E
100
AcDbEntity
  8
1
  6
Continuous
 62
     7
100
AcDbLine
 10
170.9920789999999
 20
119.8481609999999
 30
0.0
 11
173.072079
 21
119.8481609999999
 31
0.0
  0
LINE
  5
51B
330
1E
100
AcDbEntity
  8
1
  6
Continuous
 62
     7
100
AcDbLine
 10
170.9920789999999
 20
119.8481609999999
 30
0.0
 11
173.072079
 21
119.8481609999999
 31
0.0
  0
LINE
  5
51C
330
1E
100
AcDbEntity
  8
1
  6
Continuous
 62
     7
100
AcDbLine
 10
170.9920789999999
 20
119.8481609999999
 30
0.0
 11
173.072079
 21
119.8481609999999
 31
0.0
  0
LINE
  5
51D
330
1E
100
AcDbEntity
  8
1
  6
Continuous
 62
     7
100
AcDbLine
 10
170.9920789999999
 20
119.8481609999999
 30
0.0
 11
173.072079
 21
119.8481609999999
 31
0.0
  0
ARC
  5
51E
330
1E
100
AcDbEntity
  8
1
  6
Continuous
 62
     7
100
AcDbCircle
 10
171.122079
 20
118.158161
 30
0.0
 40
0.26
100
AcDbArc
 50
270.0
 51
90.0
  0
LINE
  5
51F
330
1E
100
AcDbEntity
  8
1
  6
Continuous
 62
     7
100
AcDbLine
 10
169.042079
 20
118.418161
 30
0.0
 11
171.122079
 21
118.418161
 31
0.0
  0
LINE
  5
520
330
1E
100
AcDbEntity
  8
1
  6
Continuous
 62
     7
100
AcDbLine
 10
169.042079
 20
117.898161
 30
0.0
 11
171.122079
 21
117.898161
 31
0.0
  0
ARC
  5
521
330
1E
100
AcDbEntity
  8
1
  6
Continuous
 62
     7
100
AcDbCircle
 10
169.042079
 20
118.158161
 30
0.0
 40
0.26
100
AcDbArc
 50
90.0
 51
270.0
  0
ARC
  5
522
330
1E
100
AcDbEntity
  8
1
  6
Continuous
 62
     7
100
AcDbCircle
 10
169.042079
 20
118.158161
 30
0.0
 40
0.26
100
AcDbArc
 50
90.0
 51
270.0
  0
LINE
  5
523
330
1E
100
AcDbEntity
  8
1
  6
Continuous
 62
     7
100
AcDbLine
 10
169.042079
 20
125.698161
 30
0.0
 11
171.122079
 21
125.698161
 31
0.0
  0
LINE
  5
524
330
1E
100
AcDbEntity
  8
1
  6
Continuous
 62
     7
100
AcDbLine
 10
169.042079
 20
121.798161
 30
0.0
 11
171.122079
 21
121.798161
 31
0.0
  0
ARC
  5
525
330
1E
100
AcDbEntity
  8
1
  6
Continuous
 62
     7
100
AcDbCircle
 10
169.042079
 20
122.058161
 30
0.0
 40
0.26
100
AcDbArc
 50
90.0
 51
270.0
  0
ARC
  5
526
330
1E
100
AcDbEntity
  8
1
  6
Continuous
 62
     7
100
AcDbCircle
 10
169.042079
 20
122.058161
 30
0.0
 40
0.26
100
AcDbArc
 50
90.0
 51
270.0
  0
LINE
  5
527
330
1E
100
AcDbEntity
  8
1
  6
Continuous
 62
     7
100
AcDbLine
 10
169.042079
 20
121.798161
 30
0.0
 11
171.122079
 21
121.798161
 31
0.0
  0
LINE
  5
528
330
1E
100
AcDbEntity
  8
1
  6
Continuous
 62
     7
100
AcDbLine
 10
169.042079
 20
122.318161
 30
0.0
 11
171.122079
 21
122.318161
 31
0.0
  0
ARC
  5
529
330
1E
100
AcDbEntity
  8
1
  6
Continuous
 62
     7
100
AcDbCircle
 10
171.122079
 20
122.058161
 30
0.0
 40
0.26
100
AcDbArc
 50
270.0
 51
90.0
  0
ARC
  5
52A
330
1E
100
AcDbEntity
  8
1
  6
Continuous
 62
     7
100
AcDbCircle
 10
171.122079
 20
122.058161
 30
0.0
 40
0.26
100
AcDbArc
 50
270.0
 51
90.0
  0
LINE
  5
52B
330
1E
100
AcDbEntity
  8
1
  6
Continuous
 62
     7
100
AcDbLine
 10
169.042079
 20
122.318161
 30
0.0
 11
171.122079
 21
122.318161
 31
0.0
  0
LINE
  5
52C
330
1E
100
AcDbEntity
  8
1
  6
Continuous
 62
     7
100
AcDbLine
 10
169.042079
 20
121.798161
 30
0.0
 11
171.122079
 21
121.798161
 31
0.0
  0
ARC
  5
52D
330
1E
100
AcDbEntity
  8
1
  6
Continuous
 62
     7
100
AcDbCircle
 10
169.042079
 20
122.058161
 30
0.0
 40
0.26
100
AcDbArc
 50
90.0
 51
270.0
  0
ARC
  5
52E
330
1E
100
AcDbEntity
  8
1
  6
Continuous
 62
     7
100
AcDbCircle
 10
169.042079
 20
122.058161
 30
0.0
 40
0.26
100
AcDbArc
 50
90.0
 51
270.0
  0
LINE
  5
52F
330
1E
100
AcDbEntity
  8
1
  6
Continuous
 62
     7
100
AcDbLine
 10
169.042079
 20
121.798161
 30
0.0
 11
171.122079
 21
121.798161
 31
0.0
  0
LINE
  5
530
330
1E
100
AcDbEntity
  8
1
  6
Continuous
 62
     7
100
AcDbLine
 10
169.042079
 20
122.318161
 30
0.0
 11
171.122079
 21
122.318161
 31
0.0
  0
ARC
  5
531
330
1E
100
AcDbEntity
  8
1
  6
Continuous
 62
     7
100
AcDbCircle
 10
171.122079
 20
122.058161
 30
0.0
 40
0.26
100
AcDbArc
 50
270.0
 51
90.0
  0
ARC
  5
532
330
1E
100
AcDbEntity
  8
1
  6
Continuous
 62
     7
100
AcDbCircle
 10
171.122079
 20
122.058161
 30
0.0
 40
0.26
100
AcDbArc
 50
270.0
 51
90.0
  0
LINE
  5
533
330
1E
100
AcDbEntity
  8
1
  6
Continuous
 62
     7
100
AcDbLine
 10
169.042079
 20
122.318161
 30
0.0
 11
171.122079
 21
122.318161
 31
0.0
  0
LINE
  5
534
330
1E
100
AcDbEntity
  8
1
  6
Continuous
 62
     7
100
AcDbLine
 10
170.9920789999999
 20
123.748161
 30
0.0
 11
173.072079
 21
123.748161
 31
0.0
  0
LINE
  5
535
330
1E
100
AcDbEntity
  8
1
  6
Continuous
 62
     7
100
AcDbLine
 10
170.9920789999999
 20
123.748161
 30
0.0
 11
173.072079
 21
123.748161
 31
0.0
  0
LINE
  5
536
330
1E
100
AcDbEntity
  8
1
  6
Continuous
 62
     7
100
AcDbLine
 10
170.9920789999999
 20
123.748161
 30
0.0
 11
173.072079
 21
123.748161
 31
0.0
  0
LINE
  5
537
330
1E
100
AcDbEntity
  8
1
  6
Continuous
 62
     7
100
AcDbLine
 10
170.9920789999999
 20
123.748161
 30
0.0
 11
173.072079
 21
123.748161
 31
0.0
  0
ARC
  5
538
330
1E
100
AcDbEntity
  8
1
  6
Continuous
 62
     7
100
AcDbCircle
 10
173.072079
 20
124.008161
 30
0.0
 40
0.26
100
AcDbArc
 50
270.0
 51
90.0
  0
ARC
  5
539
330
1E
100
AcDbEntity
  8
1
  6
Continuous
 62
     7
100
AcDbCircle
 10
170.9920789999999
 20
124.008161
 30
0.0
 40
0.26
100
AcDbArc
 50
90.0
 51
270.0
  0
ARC
  5
53A
330
1E
100
AcDbEntity
  8
1
  6
Continuous
 62
     7
100
AcDbCircle
 10
170.9920789999999
 20
124.008161
 30
0.0
 40
0.26
100
AcDbArc
 50
90.0
 51
270.0
  0
ARC
  5
53B
330
1E
100
AcDbEntity
  8
1
  6
Continuous
 62
     7
100
AcDbCircle
 10
173.072079
 20
124.008161
 30
0.0
 40
0.26
100
AcDbArc
 50
270.0
 51
90.0
  0
LINE
  5
53C
330
1E
100
AcDbEntity
  8
1
  6
Continuous
 62
     7
100
AcDbLine
 10
169.042079
 20
102.818161
 30
0.0
 11
171.122079
 21
102.818161
 31
0.0
  0
ARC
  5
53D
330
1E
100
AcDbEntity
  8
1
  6
Continuous
 62
     7
100
AcDbCircle
 10
171.122079
 20
102.5581609999999
 30
0.0
 40
0.26
100
AcDbArc
 50
270.0
 51
90.0
  0
ARC
  5
53E
330
1E
100
AcDbEntity
  8
1
  6
Continuous
 62
     7
100
AcDbCircle
 10
171.122079
 20
102.5581609999999
 30
0.0
 40
0.26
100
AcDbArc
 50
270.0
 51
90.0
  0
LINE
  5
53F
330
1E
100
AcDbEntity
  8
1
  6
Continuous
 62
     7
100
AcDbLine
 10
169.042079
 20
102.818161
 30
0.0
 11
171.122079
 21
102.818161
 31
0.0
  0
LINE
  5
540
330
1E
100
AcDbEntity
  8
1
  6
Continuous
 62
     7
100
AcDbLine
 10
169.042079
 20
102.2981609999999
 30
0.0
 11
171.122079
 21
102.2981609999999
 31
0.0
  0
ARC
  5
541
330
1E
100
AcDbEntity
  8
1
  6
Continuous
 62
     7
100
AcDbCircle
 10
169.042079
 20
102.5581609999999
 30
0.0
 40
0.26
100
AcDbArc
 50
90.0
 51
270.0
  0
ARC
  5
542
330
1E
100
AcDbEntity
  8
1
  6
Continuous
 62
     7
100
AcDbCircle
 10
169.042079
 20
102.5581609999999
 30
0.0
 40
0.26
100
AcDbArc
 50
90.0
 51
270.0
  0
LINE
  5
543
330
1E
100
AcDbEntity
  8
1
  6
Continuous
 62
     7
100
AcDbLine
 10
169.042079
 20
102.2981609999999
 30
0.0
 11
171.122079
 21
102.2981609999999
 31
0.0
  0
LINE
  5
544
330
1E
100
AcDbEntity
  8
1
  6
Continuous
 62
     7
100
AcDbLine
 10
169.042079
 20
102.818161
 30
0.0
 11
171.122079
 21
102.818161
 31
0.0
  0
ARC
  5
545
330
1E
100
AcDbEntity
  8
1
  6
Continuous
 62
     7
100
AcDbCircle
 10
171.122079
 20
102.5581609999999
 30
0.0
 40
0.26
100
AcDbArc
 50
270.0
 51
90.0
  0
LINE
  5
546
330
1E
100
AcDbEntity
  8
1
  6
Continuous
 62
     7
100
AcDbLine
 10
169.042079
 20
126.218161
 30
0.0
 11
171.122079
 21
126.218161
 31
0.0
  0
ARC
  5
547
330
1E
100
AcDbEntity
  8
1
  6
Continuous
 62
     7
100
AcDbCircle
 10
171.122079
 20
125.958161
 30
0.0
 40
0.26
100
AcDbArc
 50
270.0
 51
90.0
  0
ARC
  5
548
330
1E
100
AcDbEntity
  8
1
  6
Continuous
 62
     7
100
AcDbCircle
 10
171.122079
 20
125.958161
 30
0.0
 40
0.26
100
AcDbArc
 50
270.0
 51
90.0
  0
LINE
  5
549
330
1E
100
AcDbEntity
  8
1
  6
Continuous
 62
     7
100
AcDbLine
 10
169.042079
 20
126.218161
 30
0.0
 11
171.122079
 21
126.218161
 31
0.0
  0
LINE
  5
54A
330
1E
100
AcDbEntity
  8
1
  6
Continuous
 62
     7
100
AcDbLine
 10
169.042079
 20
125.698161
 30
0.0
 11
171.122079
 21
125.698161
 31
0.0
  0
ARC
  5
54B
330
1E
100
AcDbEntity
  8
1
  6
Continuous
 62
     7
100
AcDbCircle
 10
169.042079
 20
125.958161
 30
0.0
 40
0.26
100
AcDbArc
 50
90.0
 51
270.0
  0
ARC
  5
54C
330
1E
100
AcDbEntity
  8
1
  6
Continuous
 62
     7
100
AcDbCircle
 10
169.042079
 20
125.958161
 30
0.0
 40
0.26
100
AcDbArc
 50
90.0
 51
270.0
  0
LINE
  5
54D
330
1E
100
AcDbEntity
  8
1
  6
Continuous
 62
     7
100
AcDbLine
 10
169.042079
 20
125.698161
 30
0.0
 11
171.122079
 21
125.698161
 31
0.0
  0
LINE
  5
54E
330
1E
100
AcDbEntity
  8
1
  6
Continuous
 62
     7
100
AcDbLine
 10
169.042079
 20
126.218161
 30
0.0
 11
171.122079
 21
126.218161
 31
0.0
  0
ARC
  5
54F
330
1E
100
AcDbEntity
  8
1
  6
Continuous
 62
     7
100
AcDbCircle
 10
171.122079
 20
125.958161
 30
0.0
 40
0.26
100
AcDbArc
 50
270.0
 51
90.0
  0
ARC
  5
550
330
1E
100
AcDbEntity
  8
1
  6
Continuous
 62
     7
100
AcDbCircle
 10
171.122079
 20
125.958161
 30
0.0
 40
0.26
100
AcDbArc
 50
270.0
 51
90.0
  0
LINE
  5
551
330
1E
100
AcDbEntity
  8
1
  6
Continuous
 62
     7
100
AcDbLine
 10
169.042079
 20
126.218161
 30
0.0
 11
171.122079
 21
126.218161
 31
0.0
  0
LINE
  5
552
330
1E
100
AcDbEntity
  8
1
  6
Continuous
 62
     7
100
AcDbLine
 10
169.042079
 20
125.698161
 30
0.0
 11
171.122079
 21
125.698161
 31
0.0
  0
ARC
  5
553
330
1E
100
AcDbEntity
  8
1
  6
Continuous
 62
     7
100
AcDbCircle
 10
169.042079
 20
125.958161
 30
0.0
 40
0.26
100
AcDbArc
 50
90.0
 51
270.0
  0
ARC
  5
554
330
1E
100
AcDbEntity
  8
1
  6
Continuous
 62
     7
100
AcDbCircle
 10
169.042079
 20
125.958161
 30
0.0
 40
0.26
100
AcDbArc
 50
90.0
 51
270.0
  0
ARC
  5
555
330
1E
100
AcDbEntity
  8
1
  6
Continuous
 62
     7
100
AcDbCircle
 10
173.072079
 20
100.608161
 30
0.0
 40
0.26
100
AcDbArc
 50
270.0
 51
90.0
  0
LINE
  5
556
330
1E
100
AcDbEntity
  8
1
  6
Continuous
 62
     7
100
AcDbLine
 10
170.9920789999999
 20
100.868161
 30
0.0
 11
173.072079
 21
100.868161
 31
0.0
  0
LINE
  5
557
330
1E
100
AcDbEntity
  8
1
  6
Continuous
 62
     7
100
AcDbLine
 10
170.9920789999999
 20
100.868161
 30
0.0
 11
173.072079
 21
100.868161
 31
0.0
  0
LINE
  5
558
330
1E
100
AcDbEntity
  8
1
  6
Continuous
 62
     7
100
AcDbLine
 10
170.9920789999999
 20
100.868161
 30
0.0
 11
173.072079
 21
100.868161
 31
0.0
  0
LINE
  5
559
330
1E
100
AcDbEntity
  8
1
  6
Continuous
 62
     7
100
AcDbLine
 10
170.9920789999999
 20
100.868161
 30
0.0
 11
173.072079
 21
100.868161
 31
0.0
  0
ARC
  5
55A
330
1E
100
AcDbEntity
  8
1
  6
Continuous
 62
     7
100
AcDbCircle
 10
171.122079
 20
98.65816099999999
 30
0.0
 40
0.26
100
AcDbArc
 50
270.0
 51
90.0
  0
LINE
  5
55B
330
1E
100
AcDbEntity
  8
1
  6
Continuous
 62
     7
100
AcDbLine
 10
169.042079
 20
98.91816099999999
 30
0.0
 11
171.122079
 21
98.91816099999999
 31
0.0
  0
LINE
  5
55C
330
1E
100
AcDbEntity
  8
1
  6
Continuous
 62
     7
100
AcDbLine
 10
169.042079
 20
98.398161
 30
0.0
 11
171.122079
 21
98.398161
 31
0.0
  0
ARC
  5
55D
330
1E
100
AcDbEntity
  8
1
  6
Continuous
 62
     7
100
AcDbCircle
 10
169.042079
 20
98.65816099999999
 30
0.0
 40
0.26
100
AcDbArc
 50
90.0
 51
270.0
  0
ARC
  5
55E
330
1E
100
AcDbEntity
  8
1
  6
Continuous
 62
     7
100
AcDbCircle
 10
169.042079
 20
98.65816099999999
 30
0.0
 40
0.26
100
AcDbArc
 50
90.0
 51
270.0
  0
LINE
  5
55F
330
1E
100
AcDbEntity
  8
1
  6
Continuous
 62
     7
100
AcDbLine
 10
169.042079
 20
98.398161
 30
0.0
 11
171.122079
 21
98.398161
 31
0.0
  0
LINE
  5
560
330
1E
100
AcDbEntity
  8
1
  6
Continuous
 62
     7
100
AcDbLine
 10
169.042079
 20
98.91816099999999
 30
0.0
 11
171.122079
 21
98.91816099999999
 31
0.0
  0
ARC
  5
561
330
1E
100
AcDbEntity
  8
1
  6
Continuous
 62
     7
100
AcDbCircle
 10
171.122079
 20
98.65816099999999
 30
0.0
 40
0.26
100
AcDbArc
 50
270.0
 51
90.0
  0
ARC
  5
562
330
1E
100
AcDbEntity
  8
1
  6
Continuous
 62
     7
100
AcDbCircle
 10
171.122079
 20
98.65816099999999
 30
0.0
 40
0.26
100
AcDbArc
 50
270.0
 51
90.0
  0
LINE
  5
563
330
1E
100
AcDbEntity
  8
1
  6
Continuous
 62
     7
100
AcDbLine
 10
169.042079
 20
98.91816099999999
 30
0.0
 11
171.122079
 21
98.91816099999999
 31
0.0
  0
LINE
  5
564
330
1E
100
AcDbEntity
  8
1
  6
Continuous
 62
     7
100
AcDbLine
 10
170.9920789999999
 20
104.248161
 30
0.0
 11
173.072079
 21
104.248161
 31
0.0
  0
LINE
  5
565
330
1E
100
AcDbEntity
  8
1
  6
Continuous
 62
     7
100
AcDbLine
 10
170.9920789999999
 20
104.248161
 30
0.0
 11
173.072079
 21
104.248161
 31
0.0
  0
LINE
  5
566
330
1E
100
AcDbEntity
  8
1
  6
Continuous
 62
     7
100
AcDbLine
 10
170.9920789999999
 20
104.248161
 30
0.0
 11
173.072079
 21
104.248161
 31
0.0
  0
LINE
  5
567
330
1E
100
AcDbEntity
  8
1
  6
Continuous
 62
     7
100
AcDbLine
 10
170.9920789999999
 20
104.248161
 30
0.0
 11
173.072079
 21
104.248161
 31
0.0
  0
ARC
  5
568
330
1E
100
AcDbEntity
  8
1
  6
Continuous
 62
     7
100
AcDbCircle
 10
171.122079
 20
102.5581609999999
 30
0.0
 40
0.26
100
AcDbArc
 50
270.0
 51
90.0
  0
LINE
  5
569
330
1E
100
AcDbEntity
  8
1
  6
Continuous
 62
     7
100
AcDbLine
 10
169.042079
 20
102.818161
 30
0.0
 11
171.122079
 21
102.818161
 31
0.0
  0
LINE
  5
56A
330
1E
100
AcDbEntity
  8
1
  6
Continuous
 62
     7
100
AcDbLine
 10
169.042079
 20
102.2981609999999
 30
0.0
 11
171.122079
 21
102.2981609999999
 31
0.0
  0
ARC
  5
56B
330
1E
100
AcDbEntity
  8
1
  6
Continuous
 62
     7
100
AcDbCircle
 10
169.042079
 20
102.5581609999999
 30
0.0
 40
0.26
100
AcDbArc
 50
90.0
 51
270.0
  0
ARC
  5
56C
330
1E
100
AcDbEntity
  8
1
  6
Continuous
 62
     7
100
AcDbCircle
 10
169.042079
 20
102.5581609999999
 30
0.0
 40
0.26
100
AcDbArc
 50
90.0
 51
270.0
  0
LINE
  5
56D
330
1E
100
AcDbEntity
  8
1
  6
Continuous
 62
     7
100
AcDbLine
 10
169.042079
 20
102.2981609999999
 30
0.0
 11
171.122079
 21
102.2981609999999
 31
0.0
  0
ARC
  5
56E
330
1E
100
AcDbEntity
  8
1
  6
Continuous
 62
     7
100
AcDbCircle
 10
173.072079
 20
104.5081609999999
 30
0.0
 40
0.26
100
AcDbArc
 50
270.0
 51
90.0
  0
ARC
  5
56F
330
1E
100
AcDbEntity
  8
1
  6
Continuous
 62
     7
100
AcDbCircle
 10
170.9920789999999
 20
104.5081609999999
 30
0.0
 40
0.26
100
AcDbArc
 50
90.0
 51
270.0
  0
ARC
  5
570
330
1E
100
AcDbEntity
  8
1
  6
Continuous
 62
     7
100
AcDbCircle
 10
170.9920789999999
 20
104.5081609999999
 30
0.0
 40
0.26
100
AcDbArc
 50
90.0
 51
270.0
  0
ARC
  5
571
330
1E
100
AcDbEntity
  8
1
  6
Continuous
 62
     7
100
AcDbCircle
 10
173.072079
 20
104.5081609999999
 30
0.0
 40
0.26
100
AcDbArc
 50
270.0
 51
90.0
  0
ARC
  5
572
330
1E
100
AcDbEntity
  8
1
  6
Continuous
 62
     7
100
AcDbCircle
 10
173.072079
 20
104.5081609999999
 30
0.0
 40
0.26
100
AcDbArc
 50
270.0
 51
90.0
  0
ARC
  5
573
330
1E
100
AcDbEntity
  8
1
  6
Continuous
 62
     7
100
AcDbCircle
 10
170.9920789999999
 20
104.5081609999999
 30
0.0
 40
0.26
100
AcDbArc
 50
90.0
 51
270.0
  0
ARC
  5
574
330
1E
100
AcDbEntity
  8
1
  6
Continuous
 62
     7
100
AcDbCircle
 10
170.9920789999999
 20
104.5081609999999
 30
0.0
 40
0.26
100
AcDbArc
 50
90.0
 51
270.0
  0
ARC
  5
575
330
1E
100
AcDbEntity
  8
1
  6
Continuous
 62
     7
100
AcDbCircle
 10
173.072079
 20
104.5081609999999
 30
0.0
 40
0.26
100
AcDbArc
 50
270.0
 51
90.0
  0
LINE
  5
576
330
1E
100
AcDbEntity
  8
1
  6
Continuous
 62
     7
100
AcDbLine
 10
169.042079
 20
98.398161
 30
0.0
 11
171.122079
 21
98.398161
 31
0.0
  0
ARC
  5
577
330
1E
100
AcDbEntity
  8
1
  6
Continuous
 62
     7
100
AcDbCircle
 10
169.042079
 20
98.65816099999999
 30
0.0
 40
0.26
100
AcDbArc
 50
90.0
 51
270.0
  0
ARC
  5
578
330
1E
100
AcDbEntity
  8
1
  6
Continuous
 62
     7
100
AcDbCircle
 10
169.042079
 20
98.65816099999999
 30
0.0
 40
0.26
100
AcDbArc
 50
90.0
 51
270.0
  0
LINE
  5
579
330
1E
100
AcDbEntity
  8
1
  6
Continuous
 62
     7
100
AcDbLine
 10
169.042079
 20
98.398161
 30
0.0
 11
171.122079
 21
98.398161
 31
0.0
  0
LINE
  5
57A
330
1E
100
AcDbEntity
  8
1
  6
Continuous
 62
     7
100
AcDbLine
 10
169.042079
 20
98.91816099999999
 30
0.0
 11
171.122079
 21
98.91816099999999
 31
0.0
  0
ARC
  5
57B
330
1E
100
AcDbEntity
  8
1
  6
Continuous
 62
     7
100
AcDbCircle
 10
171.122079
 20
98.65816099999999
 30
0.0
 40
0.26
100
AcDbArc
 50
270.0
 51
90.0
  0
LINE
  5
57C
330
1E
100
AcDbEntity
  8
1
  6
Continuous
 62
     7
100
AcDbLine
 10
170.9920789999999
 20
100.348161
 30
0.0
 11
173.072079
 21
100.348161
 31
0.0
  0
LINE
  5
57D
330
1E
100
AcDbEntity
  8
1
  6
Continuous
 62
     7
100
AcDbLine
 10
170.9920789999999
 20
100.348161
 30
0.0
 11
173.072079
 21
100.348161
 31
0.0
  0
LINE
  5
57E
330
1E
100
AcDbEntity
  8
1
  6
Continuous
 62
     7
100
AcDbLine
 10
170.9920789999999
 20
100.348161
 30
0.0
 11
173.072079
 21
100.348161
 31
0.0
  0
LINE
  5
57F
330
1E
100
AcDbEntity
  8
1
  6
Continuous
 62
     7
100
AcDbLine
 10
170.9920789999999
 20
100.348161
 30
0.0
 11
173.072079
 21
100.348161
 31
0.0
  0
ARC
  5
580
330
1E
100
AcDbEntity
  8
1
  6
Continuous
 62
     7
100
AcDbCircle
 10
173.072079
 20
100.608161
 30
0.0
 40
0.26
100
AcDbArc
 50
270.0
 51
90.0
  0
ARC
  5
581
330
1E
100
AcDbEntity
  8
1
  6
Continuous
 62
     7
100
AcDbCircle
 10
170.9920789999999
 20
100.608161
 30
0.0
 40
0.26
100
AcDbArc
 50
90.0
 51
270.0
  0
ARC
  5
582
330
1E
100
AcDbEntity
  8
1
  6
Continuous
 62
     7
100
AcDbCircle
 10
170.9920789999999
 20
100.608161
 30
0.0
 40
0.26
100
AcDbArc
 50
90.0
 51
270.0
  0
ARC
  5
583
330
1E
100
AcDbEntity
  8
1
  6
Continuous
 62
     7
100
AcDbCircle
 10
173.072079
 20
100.608161
 30
0.0
 40
0.26
100
AcDbArc
 50
270.0
 51
90.0
  0
ARC
  5
584
330
1E
100
AcDbEntity
  8
1
  6
Continuous
 62
     7
100
AcDbCircle
 10
173.072079
 20
100.608161
 30
0.0
 40
0.26
100
AcDbArc
 50
270.0
 51
90.0
  0
ARC
  5
585
330
1E
100
AcDbEntity
  8
1
  6
Continuous
 62
     7
100
AcDbCircle
 10
170.9920789999999
 20
100.608161
 30
0.0
 40
0.26
100
AcDbArc
 50
90.0
 51
270.0
  0
ARC
  5
586
330
1E
100
AcDbEntity
  8
1
  6
Continuous
 62
     7
100
AcDbCircle
 10
170.9920789999999
 20
100.608161
 30
0.0
 40
0.26
100
AcDbArc
 50
90.0
 51
270.0
  0
LINE
  5
587
330
1E
100
AcDbEntity
  8
1
  6
Continuous
 62
     7
100
AcDbLine
 10
163.192079
 20
108.668161
 30
0.0
 11
165.272079
 21
108.668161
 31
0.0
  0
ARC
  5
588
330
1E
100
AcDbEntity
  8
1
  6
Continuous
 62
     7
100
AcDbCircle
 10
163.322079
 20
106.458161
 30
0.0
 40
0.26
100
AcDbArc
 50
270.0
 51
90.0
  0
LINE
  5
589
330
1E
100
AcDbEntity
  8
1
  6
Continuous
 62
     7
100
AcDbLine
 10
161.2420789999999
 20
106.718161
 30
0.0
 11
163.322079
 21
106.718161
 31
0.0
  0
LINE
  5
58A
330
1E
100
AcDbEntity
  8
1
  6
Continuous
 62
     7
100
AcDbLine
 10
161.2420789999999
 20
106.198161
 30
0.0
 11
163.322079
 21
106.198161
 31
0.0
  0
ARC
  5
58B
330
1E
100
AcDbEntity
  8
1
  6
Continuous
 62
     7
100
AcDbCircle
 10
161.2420789999999
 20
106.458161
 30
0.0
 40
0.26
100
AcDbArc
 50
90.0
 51
270.0
  0
ARC
  5
58C
330
1E
100
AcDbEntity
  8
1
  6
Continuous
 62
     7
100
AcDbCircle
 10
161.2420789999999
 20
106.458161
 30
0.0
 40
0.26
100
AcDbArc
 50
90.0
 51
270.0
  0
LINE
  5
58D
330
1E
100
AcDbEntity
  8
1
  6
Continuous
 62
     7
100
AcDbLine
 10
161.2420789999999
 20
106.198161
 30
0.0
 11
163.322079
 21
106.198161
 31
0.0
  0
LINE
  5
58E
330
1E
100
AcDbEntity
  8
1
  6
Continuous
 62
     7
100
AcDbLine
 10
161.2420789999999
 20
106.718161
 30
0.0
 11
163.322079
 21
106.718161
 31
0.0
  0
ARC
  5
58F
330
1E
100
AcDbEntity
  8
1
  6
Continuous
 62
     7
100
AcDbCircle
 10
163.322079
 20
106.458161
 30
0.0
 40
0.26
100
AcDbArc
 50
270.0
 51
90.0
  0
ARC
  5
590
330
1E
100
AcDbEntity
  8
1
  6
Continuous
 62
     7
100
AcDbCircle
 10
163.322079
 20
106.458161
 30
0.0
 40
0.26
100
AcDbArc
 50
270.0
 51
90.0
  0
LINE
  5
591
330
1E
100
AcDbEntity
  8
1
  6
Continuous
 62
     7
100
AcDbLine
 10
161.2420789999999
 20
106.718161
 30
0.0
 11
163.322079
 21
106.718161
 31
0.0
  0
LINE
  5
592
330
1E
100
AcDbEntity
  8
1
  6
Continuous
 62
     7
100
AcDbLine
 10
163.192079
 20
104.7681609999999
 30
0.0
 11
165.272079
 21
104.7681609999999
 31
0.0
  0
LINE
  5
593
330
1E
100
AcDbEntity
  8
1
  6
Continuous
 62
     7
100
AcDbLine
 10
163.192079
 20
104.7681609999999
 30
0.0
 11
165.272079
 21
104.7681609999999
 31
0.0
  0
LINE
  5
594
330
1E
100
AcDbEntity
  8
1
  6
Continuous
 62
     7
100
AcDbLine
 10
163.192079
 20
104.7681609999999
 30
0.0
 11
165.272079
 21
104.7681609999999
 31
0.0
  0
LINE
  5
595
330
1E
100
AcDbEntity
  8
1
  6
Continuous
 62
     7
100
AcDbLine
 10
163.192079
 20
104.7681609999999
 30
0.0
 11
165.272079
 21
104.7681609999999
 31
0.0
  0
LINE
  5
596
330
1E
100
AcDbEntity
  8
1
  6
Continuous
 62
     7
100
AcDbLine
 10
163.192079
 20
112.5681609999999
 30
0.0
 11
165.272079
 21
112.5681609999999
 31
0.0
  0
LINE
  5
597
330
1E
100
AcDbEntity
  8
1
  6
Continuous
 62
     7
100
AcDbLine
 10
163.192079
 20
112.5681609999999
 30
0.0
 11
165.272079
 21
112.5681609999999
 31
0.0
  0
LINE
  5
598
330
1E
100
AcDbEntity
  8
1
  6
Continuous
 62
     7
100
AcDbLine
 10
163.192079
 20
112.5681609999999
 30
0.0
 11
165.272079
 21
112.5681609999999
 31
0.0
  0
LINE
  5
599
330
1E
100
AcDbEntity
  8
1
  6
Continuous
 62
     7
100
AcDbLine
 10
163.192079
 20
112.5681609999999
 30
0.0
 11
165.272079
 21
112.5681609999999
 31
0.0
  0
LINE
  5
59A
330
1E
100
AcDbEntity
  8
1
  6
Continuous
 62
     7
100
AcDbLine
 10
161.2420789999999
 20
106.198161
 30
0.0
 11
163.322079
 21
106.198161
 31
0.0
  0
ARC
  5
59B
330
1E
100
AcDbEntity
  8
1
  6
Continuous
 62
     7
100
AcDbCircle
 10
161.2420789999999
 20
106.458161
 30
0.0
 40
0.26
100
AcDbArc
 50
90.0
 51
270.0
  0
ARC
  5
59C
330
1E
100
AcDbEntity
  8
1
  6
Continuous
 62
     7
100
AcDbCircle
 10
161.2420789999999
 20
106.458161
 30
0.0
 40
0.26
100
AcDbArc
 50
90.0
 51
270.0
  0
LINE
  5
59D
330
1E
100
AcDbEntity
  8
1
  6
Continuous
 62
     7
100
AcDbLine
 10
161.2420789999999
 20
106.198161
 30
0.0
 11
163.322079
 21
106.198161
 31
0.0
  0
LINE
  5
59E
330
1E
100
AcDbEntity
  8
1
  6
Continuous
 62
     7
100
AcDbLine
 10
161.2420789999999
 20
106.718161
 30
0.0
 11
163.322079
 21
106.718161
 31
0.0
  0
ARC
  5
59F
330
1E
100
AcDbEntity
  8
1
  6
Continuous
 62
     7
100
AcDbCircle
 10
163.322079
 20
106.458161
 30
0.0
 40
0.26
100
AcDbArc
 50
270.0
 51
90.0
  0
LINE
  5
5A0
330
1E
100
AcDbEntity
  8
1
  6
Continuous
 62
     7
100
AcDbLine
 10
163.192079
 20
108.148161
 30
0.0
 11
165.272079
 21
108.148161
 31
0.0
  0
LINE
  5
5A1
330
1E
100
AcDbEntity
  8
1
  6
Continuous
 62
     7
100
AcDbLine
 10
163.192079
 20
108.148161
 30
0.0
 11
165.272079
 21
108.148161
 31
0.0
  0
LINE
  5
5A2
330
1E
100
AcDbEntity
  8
1
  6
Continuous
 62
     7
100
AcDbLine
 10
163.192079
 20
108.148161
 30
0.0
 11
165.272079
 21
108.148161
 31
0.0
  0
LINE
  5
5A3
330
1E
100
AcDbEntity
  8
1
  6
Continuous
 62
     7
100
AcDbLine
 10
163.192079
 20
108.148161
 30
0.0
 11
165.272079
 21
108.148161
 31
0.0
  0
ARC
  5
5A4
330
1E
100
AcDbEntity
  8
1
  6
Continuous
 62
     7
100
AcDbCircle
 10
165.272079
 20
108.408161
 30
0.0
 40
0.26
100
AcDbArc
 50
270.0
 51
90.0
  0
ARC
  5
5A5
330
1E
100
AcDbEntity
  8
1
  6
Continuous
 62
     7
100
AcDbCircle
 10
163.192079
 20
108.408161
 30
0.0
 40
0.26
100
AcDbArc
 50
90.0
 51
270.0
  0
ARC
  5
5A6
330
1E
100
AcDbEntity
  8
1
  6
Continuous
 62
     7
100
AcDbCircle
 10
163.192079
 20
108.408161
 30
0.0
 40
0.26
100
AcDbArc
 50
90.0
 51
270.0
  0
ARC
  5
5A7
330
1E
100
AcDbEntity
  8
1
  6
Continuous
 62
     7
100
AcDbCircle
 10
165.272079
 20
108.408161
 30
0.0
 40
0.26
100
AcDbArc
 50
270.0
 51
90.0
  0
ARC
  5
5A8
330
1E
100
AcDbEntity
  8
1
  6
Continuous
 62
     7
100
AcDbCircle
 10
165.272079
 20
108.408161
 30
0.0
 40
0.26
100
AcDbArc
 50
270.0
 51
90.0
  0
ARC
  5
5A9
330
1E
100
AcDbEntity
  8
1
  6
Continuous
 62
     7
100
AcDbCircle
 10
163.192079
 20
108.408161
 30
0.0
 40
0.26
100
AcDbArc
 50
90.0
 51
270.0
  0
ARC
  5
5AA
330
1E
100
AcDbEntity
  8
1
  6
Continuous
 62
     7
100
AcDbCircle
 10
163.192079
 20
108.408161
 30
0.0
 40
0.26
100
AcDbArc
 50
90.0
 51
270.0
  0
ARC
  5
5AB
330
1E
100
AcDbEntity
  8
1
  6
Continuous
 62
     7
100
AcDbCircle
 10
165.272079
 20
108.408161
 30
0.0
 40
0.26
100
AcDbArc
 50
270.0
 51
90.0
  0
LINE
  5
5AC
330
1E
100
AcDbEntity
  8
1
  6
Continuous
 62
     7
100
AcDbLine
 10
163.192079
 20
108.668161
 30
0.0
 11
165.272079
 21
108.668161
 31
0.0
  0
LINE
  5
5AD
330
1E
100
AcDbEntity
  8
1
  6
Continuous
 62
     7
100
AcDbLine
 10
163.192079
 20
108.668161
 30
0.0
 11
165.272079
 21
108.668161
 31
0.0
  0
LINE
  5
5AE
330
1E
100
AcDbEntity
  8
1
  6
Continuous
 62
     7
100
AcDbLine
 10
163.192079
 20
108.668161
 30
0.0
 11
165.272079
 21
108.668161
 31
0.0
  0
ARC
  5
5AF
330
1E
100
AcDbEntity
  8
1
  6
Continuous
 62
     7
100
AcDbCircle
 10
165.272079
 20
112.308161
 30
0.0
 40
0.26
100
AcDbArc
 50
270.0
 51
90.0
  0
ARC
  5
5B0
330
1E
100
AcDbEntity
  8
1
  6
Continuous
 62
     7
100
AcDbCircle
 10
165.272079
 20
112.308161
 30
0.0
 40
0.26
100
AcDbArc
 50
270.0
 51
90.0
  0
ARC
  5
5B1
330
1E
100
AcDbEntity
  8
1
  6
Continuous
 62
     7
100
AcDbCircle
 10
163.192079
 20
112.308161
 30
0.0
 40
0.26
100
AcDbArc
 50
90.0
 51
270.0
  0
ARC
  5
5B2
330
1E
100
AcDbEntity
  8
1
  6
Continuous
 62
     7
100
AcDbCircle
 10
163.192079
 20
112.308161
 30
0.0
 40
0.26
100
AcDbArc
 50
90.0
 51
270.0
  0
ARC
  5
5B3
330
1E
100
AcDbEntity
  8
1
  6
Continuous
 62
     7
100
AcDbCircle
 10
165.272079
 20
112.308161
 30
0.0
 40
0.26
100
AcDbArc
 50
270.0
 51
90.0
  0
LINE
  5
5B4
330
1E
100
AcDbEntity
  8
1
  6
Continuous
 62
     7
100
AcDbLine
 10
163.192079
 20
112.048161
 30
0.0
 11
165.272079
 21
112.048161
 31
0.0
  0
LINE
  5
5B5
330
1E
100
AcDbEntity
  8
1
  6
Continuous
 62
     7
100
AcDbLine
 10
163.192079
 20
112.048161
 30
0.0
 11
165.272079
 21
112.048161
 31
0.0
  0
LINE
  5
5B6
330
1E
100
AcDbEntity
  8
1
  6
Continuous
 62
     7
100
AcDbLine
 10
163.192079
 20
112.048161
 30
0.0
 11
165.272079
 21
112.048161
 31
0.0
  0
LINE
  5
5B7
330
1E
100
AcDbEntity
  8
1
  6
Continuous
 62
     7
100
AcDbLine
 10
163.192079
 20
112.048161
 30
0.0
 11
165.272079
 21
112.048161
 31
0.0
  0
ARC
  5
5B8
330
1E
100
AcDbEntity
  8
1
  6
Continuous
 62
     7
100
AcDbCircle
 10
163.322079
 20
110.358161
 30
0.0
 40
0.26
100
AcDbArc
 50
270.0
 51
90.0
  0
LINE
  5
5B9
330
1E
100
AcDbEntity
  8
1
  6
Continuous
 62
     7
100
AcDbLine
 10
161.2420789999999
 20
110.618161
 30
0.0
 11
163.322079
 21
110.618161
 31
0.0
  0
LINE
  5
5BA
330
1E
100
AcDbEntity
  8
1
  6
Continuous
 62
     7
100
AcDbLine
 10
161.2420789999999
 20
110.098161
 30
0.0
 11
163.322079
 21
110.098161
 31
0.0
  0
ARC
  5
5BB
330
1E
100
AcDbEntity
  8
1
  6
Continuous
 62
     7
100
AcDbCircle
 10
161.2420789999999
 20
110.358161
 30
0.0
 40
0.26
100
AcDbArc
 50
90.0
 51
270.0
  0
ARC
  5
5BC
330
1E
100
AcDbEntity
  8
1
  6
Continuous
 62
     7
100
AcDbCircle
 10
161.2420789999999
 20
110.358161
 30
0.0
 40
0.26
100
AcDbArc
 50
90.0
 51
270.0
  0
LINE
  5
5BD
330
1E
100
AcDbEntity
  8
1
  6
Continuous
 62
     7
100
AcDbLine
 10
161.2420789999999
 20
110.098161
 30
0.0
 11
163.322079
 21
110.098161
 31
0.0
  0
LINE
  5
5BE
330
1E
100
AcDbEntity
  8
1
  6
Continuous
 62
     7
100
AcDbLine
 10
161.2420789999999
 20
110.618161
 30
0.0
 11
163.322079
 21
110.618161
 31
0.0
  0
ARC
  5
5BF
330
1E
100
AcDbEntity
  8
1
  6
Continuous
 62
     7
100
AcDbCircle
 10
163.322079
 20
110.358161
 30
0.0
 40
0.26
100
AcDbArc
 50
270.0
 51
90.0
  0
ARC
  5
5C0
330
1E
100
AcDbEntity
  8
1
  6
Continuous
 62
     7
100
AcDbCircle
 10
163.322079
 20
110.358161
 30
0.0
 40
0.26
100
AcDbArc
 50
270.0
 51
90.0
  0
LINE
  5
5C1
330
1E
100
AcDbEntity
  8
1
  6
Continuous
 62
     7
100
AcDbLine
 10
161.2420789999999
 20
110.618161
 30
0.0
 11
163.322079
 21
110.618161
 31
0.0
  0
LINE
  5
5C2
330
1E
100
AcDbEntity
  8
1
  6
Continuous
 62
     7
100
AcDbLine
 10
161.2420789999999
 20
110.098161
 30
0.0
 11
163.322079
 21
110.098161
 31
0.0
  0
ARC
  5
5C3
330
1E
100
AcDbEntity
  8
1
  6
Continuous
 62
     7
100
AcDbCircle
 10
161.2420789999999
 20
110.358161
 30
0.0
 40
0.26
100
AcDbArc
 50
90.0
 51
270.0
  0
ARC
  5
5C4
330
1E
100
AcDbEntity
  8
1
  6
Continuous
 62
     7
100
AcDbCircle
 10
161.2420789999999
 20
110.358161
 30
0.0
 40
0.26
100
AcDbArc
 50
90.0
 51
270.0
  0
LINE
  5
5C5
330
1E
100
AcDbEntity
  8
1
  6
Continuous
 62
     7
100
AcDbLine
 10
161.2420789999999
 20
110.098161
 30
0.0
 11
163.322079
 21
110.098161
 31
0.0
  0
LINE
  5
5C6
330
1E
100
AcDbEntity
  8
1
  6
Continuous
 62
     7
100
AcDbLine
 10
161.2420789999999
 20
110.618161
 30
0.0
 11
163.322079
 21
110.618161
 31
0.0
  0
ARC
  5
5C7
330
1E
100
AcDbEntity
  8
1
  6
Continuous
 62
     7
100
AcDbCircle
 10
163.322079
 20
110.358161
 30
0.0
 40
0.26
100
AcDbArc
 50
270.0
 51
90.0
  0
ARC
  5
5C8
330
1E
100
AcDbEntity
  8
1
  6
Continuous
 62
     7
100
AcDbCircle
 10
165.272079
 20
116.2081609999999
 30
0.0
 40
0.26
100
AcDbArc
 50
270.0
 51
90.0
  0
ARC
  5
5C9
330
1E
100
AcDbEntity
  8
1
  6
Continuous
 62
     7
100
AcDbCircle
 10
163.192079
 20
116.2081609999999
 30
0.0
 40
0.26
100
AcDbArc
 50
90.0
 51
270.0
  0
ARC
  5
5CA
330
1E
100
AcDbEntity
  8
1
  6
Continuous
 62
     7
100
AcDbCircle
 10
163.192079
 20
116.2081609999999
 30
0.0
 40
0.26
100
AcDbArc
 50
90.0
 51
270.0
  0
ARC
  5
5CB
330
1E
100
AcDbEntity
  8
1
  6
Continuous
 62
     7
100
AcDbCircle
 10
165.272079
 20
116.2081609999999
 30
0.0
 40
0.26
100
AcDbArc
 50
270.0
 51
90.0
  0
ARC
  5
5CC
330
1E
100
AcDbEntity
  8
1
  6
Continuous
 62
     7
100
AcDbCircle
 10
165.272079
 20
116.2081609999999
 30
0.0
 40
0.26
100
AcDbArc
 50
270.0
 51
90.0
  0
ARC
  5
5CD
330
1E
100
AcDbEntity
  8
1
  6
Continuous
 62
     7
100
AcDbCircle
 10
163.192079
 20
116.2081609999999
 30
0.0
 40
0.26
100
AcDbArc
 50
90.0
 51
270.0
  0
ARC
  5
5CE
330
1E
100
AcDbEntity
  8
1
  6
Continuous
 62
     7
100
AcDbCircle
 10
163.192079
 20
116.2081609999999
 30
0.0
 40
0.26
100
AcDbArc
 50
90.0
 51
270.0
  0
ARC
  5
5CF
330
1E
100
AcDbEntity
  8
1
  6
Continuous
 62
     7
100
AcDbCircle
 10
165.272079
 20
116.2081609999999
 30
0.0
 40
0.26
100
AcDbArc
 50
270.0
 51
90.0
  0
LINE
  5
5D0
330
1E
100
AcDbEntity
  8
1
  6
Continuous
 62
     7
100
AcDbLine
 10
163.192079
 20
116.468161
 30
0.0
 11
165.272079
 21
116.468161
 31
0.0
  0
LINE
  5
5D1
330
1E
100
AcDbEntity
  8
1
  6
Continuous
 62
     7
100
AcDbLine
 10
163.192079
 20
116.468161
 30
0.0
 11
165.272079
 21
116.468161
 31
0.0
  0
LINE
  5
5D2
330
1E
100
AcDbEntity
  8
1
  6
Continuous
 62
     7
100
AcDbLine
 10
163.192079
 20
116.468161
 30
0.0
 11
165.272079
 21
116.468161
 31
0.0
  0
LINE
  5
5D3
330
1E
100
AcDbEntity
  8
1
  6
Continuous
 62
     7
100
AcDbLine
 10
163.192079
 20
116.468161
 30
0.0
 11
165.272079
 21
116.468161
 31
0.0
  0
ARC
  5
5D4
330
1E
100
AcDbEntity
  8
1
  6
Continuous
 62
     7
100
AcDbCircle
 10
163.322079
 20
114.258161
 30
0.0
 40
0.26
100
AcDbArc
 50
270.0
 51
90.0
  0
LINE
  5
5D5
330
1E
100
AcDbEntity
  8
1
  6
Continuous
 62
     7
100
AcDbLine
 10
161.2420789999999
 20
114.518161
 30
0.0
 11
163.322079
 21
114.518161
 31
0.0
  0
LINE
  5
5D6
330
1E
100
AcDbEntity
  8
1
  6
Continuous
 62
     7
100
AcDbLine
 10
161.2420789999999
 20
113.998161
 30
0.0
 11
163.322079
 21
113.998161
 31
0.0
  0
ARC
  5
5D7
330
1E
100
AcDbEntity
  8
1
  6
Continuous
 62
     7
100
AcDbCircle
 10
161.2420789999999
 20
114.258161
 30
0.0
 40
0.26
100
AcDbArc
 50
90.0
 51
270.0
  0
ARC
  5
5D8
330
1E
100
AcDbEntity
  8
1
  6
Continuous
 62
     7
100
AcDbCircle
 10
161.2420789999999
 20
114.258161
 30
0.0
 40
0.26
100
AcDbArc
 50
90.0
 51
270.0
  0
LINE
  5
5D9
330
1E
100
AcDbEntity
  8
1
  6
Continuous
 62
     7
100
AcDbLine
 10
161.2420789999999
 20
113.998161
 30
0.0
 11
163.322079
 21
113.998161
 31
0.0
  0
LINE
  5
5DA
330
1E
100
AcDbEntity
  8
1
  6
Continuous
 62
     7
100
AcDbLine
 10
161.2420789999999
 20
114.518161
 30
0.0
 11
163.322079
 21
114.518161
 31
0.0
  0
ARC
  5
5DB
330
1E
100
AcDbEntity
  8
1
  6
Continuous
 62
     7
100
AcDbCircle
 10
163.322079
 20
114.258161
 30
0.0
 40
0.26
100
AcDbArc
 50
270.0
 51
90.0
  0
ARC
  5
5DC
330
1E
100
AcDbEntity
  8
1
  6
Continuous
 62
     7
100
AcDbCircle
 10
163.322079
 20
114.258161
 30
0.0
 40
0.26
100
AcDbArc
 50
270.0
 51
90.0
  0
LINE
  5
5DD
330
1E
100
AcDbEntity
  8
1
  6
Continuous
 62
     7
100
AcDbLine
 10
161.2420789999999
 20
114.518161
 30
0.0
 11
163.322079
 21
114.518161
 31
0.0
  0
ARC
  5
5DE
330
1E
100
AcDbEntity
  8
1
  6
Continuous
 62
     7
100
AcDbCircle
 10
165.272079
 20
112.308161
 30
0.0
 40
0.26
100
AcDbArc
 50
270.0
 51
90.0
  0
ARC
  5
5DF
330
1E
100
AcDbEntity
  8
1
  6
Continuous
 62
     7
100
AcDbCircle
 10
163.192079
 20
112.308161
 30
0.0
 40
0.26
100
AcDbArc
 50
90.0
 51
270.0
  0
ARC
  5
5E0
330
1E
100
AcDbEntity
  8
1
  6
Continuous
 62
     7
100
AcDbCircle
 10
163.192079
 20
112.308161
 30
0.0
 40
0.26
100
AcDbArc
 50
90.0
 51
270.0
  0
LINE
  5
5E1
330
1E
100
AcDbEntity
  8
1
  6
Continuous
 62
     7
100
AcDbLine
 10
161.2420789999999
 20
117.898161
 30
0.0
 11
163.322079
 21
117.898161
 31
0.0
  0
LINE
  5
5E2
330
1E
100
AcDbEntity
  8
1
  6
Continuous
 62
     7
100
AcDbLine
 10
161.2420789999999
 20
118.418161
 30
0.0
 11
163.322079
 21
118.418161
 31
0.0
  0
ARC
  5
5E3
330
1E
100
AcDbEntity
  8
1
  6
Continuous
 62
     7
100
AcDbCircle
 10
163.322079
 20
118.158161
 30
0.0
 40
0.26
100
AcDbArc
 50
270.0
 51
90.0
  0
ARC
  5
5E4
330
1E
100
AcDbEntity
  8
1
  6
Continuous
 62
     7
100
AcDbCircle
 10
163.322079
 20
118.158161
 30
0.0
 40
0.26
100
AcDbArc
 50
270.0
 51
90.0
  0
LINE
  5
5E5
330
1E
100
AcDbEntity
  8
1
  6
Continuous
 62
     7
100
AcDbLine
 10
161.2420789999999
 20
118.418161
 30
0.0
 11
163.322079
 21
118.418161
 31
0.0
  0
LINE
  5
5E6
330
1E
100
AcDbEntity
  8
1
  6
Continuous
 62
     7
100
AcDbLine
 10
161.2420789999999
 20
117.898161
 30
0.0
 11
163.322079
 21
117.898161
 31
0.0
  0
ARC
  5
5E7
330
1E
100
AcDbEntity
  8
1
  6
Continuous
 62
     7
100
AcDbCircle
 10
161.2420789999999
 20
118.158161
 30
0.0
 40
0.26
100
AcDbArc
 50
90.0
 51
270.0
  0
ARC
  5
5E8
330
1E
100
AcDbEntity
  8
1
  6
Continuous
 62
     7
100
AcDbCircle
 10
161.2420789999999
 20
118.158161
 30
0.0
 40
0.26
100
AcDbArc
 50
90.0
 51
270.0
  0
LINE
  5
5E9
330
1E
100
AcDbEntity
  8
1
  6
Continuous
 62
     7
100
AcDbLine
 10
161.2420789999999
 20
117.898161
 30
0.0
 11
163.322079
 21
117.898161
 31
0.0
  0
LINE
  5
5EA
330
1E
100
AcDbEntity
  8
1
  6
Continuous
 62
     7
100
AcDbLine
 10
161.2420789999999
 20
118.418161
 30
0.0
 11
163.322079
 21
118.418161
 31
0.0
  0
ARC
  5
5EB
330
1E
100
AcDbEntity
  8
1
  6
Continuous
 62
     7
100
AcDbCircle
 10
163.322079
 20
118.158161
 30
0.0
 40
0.26
100
AcDbArc
 50
270.0
 51
90.0
  0
LINE
  5
5EC
330
1E
100
AcDbEntity
  8
1
  6
Continuous
 62
     7
100
AcDbLine
 10
163.192079
 20
120.368161
 30
0.0
 11
165.272079
 21
120.368161
 31
0.0
  0
LINE
  5
5ED
330
1E
100
AcDbEntity
  8
1
  6
Continuous
 62
     7
100
AcDbLine
 10
163.192079
 20
120.368161
 30
0.0
 11
165.272079
 21
120.368161
 31
0.0
  0
LINE
  5
5EE
330
1E
100
AcDbEntity
  8
1
  6
Continuous
 62
     7
100
AcDbLine
 10
163.192079
 20
120.368161
 30
0.0
 11
165.272079
 21
120.368161
 31
0.0
  0
LINE
  5
5EF
330
1E
100
AcDbEntity
  8
1
  6
Continuous
 62
     7
100
AcDbLine
 10
163.192079
 20
120.368161
 30
0.0
 11
165.272079
 21
120.368161
 31
0.0
  0
LINE
  5
5F0
330
1E
100
AcDbEntity
  8
1
  6
Continuous
 62
     7
100
AcDbLine
 10
161.2420789999999
 20
113.998161
 30
0.0
 11
163.322079
 21
113.998161
 31
0.0
  0
ARC
  5
5F1
330
1E
100
AcDbEntity
  8
1
  6
Continuous
 62
     7
100
AcDbCircle
 10
161.2420789999999
 20
114.258161
 30
0.0
 40
0.26
100
AcDbArc
 50
90.0
 51
270.0
  0
ARC
  5
5F2
330
1E
100
AcDbEntity
  8
1
  6
Continuous
 62
     7
100
AcDbCircle
 10
161.2420789999999
 20
114.258161
 30
0.0
 40
0.26
100
AcDbArc
 50
90.0
 51
270.0
  0
LINE
  5
5F3
330
1E
100
AcDbEntity
  8
1
  6
Continuous
 62
     7
100
AcDbLine
 10
161.2420789999999
 20
113.998161
 30
0.0
 11
163.322079
 21
113.998161
 31
0.0
  0
LINE
  5
5F4
330
1E
100
AcDbEntity
  8
1
  6
Continuous
 62
     7
100
AcDbLine
 10
161.2420789999999
 20
114.518161
 30
0.0
 11
163.322079
 21
114.518161
 31
0.0
  0
ARC
  5
5F5
330
1E
100
AcDbEntity
  8
1
  6
Continuous
 62
     7
100
AcDbCircle
 10
163.322079
 20
114.258161
 30
0.0
 40
0.26
100
AcDbArc
 50
270.0
 51
90.0
  0
LINE
  5
5F6
330
1E
100
AcDbEntity
  8
1
  6
Continuous
 62
     7
100
AcDbLine
 10
163.192079
 20
115.948161
 30
0.0
 11
165.272079
 21
115.948161
 31
0.0
  0
LINE
  5
5F7
330
1E
100
AcDbEntity
  8
1
  6
Continuous
 62
     7
100
AcDbLine
 10
163.192079
 20
115.948161
 30
0.0
 11
165.272079
 21
115.948161
 31
0.0
  0
LINE
  5
5F8
330
1E
100
AcDbEntity
  8
1
  6
Continuous
 62
     7
100
AcDbLine
 10
163.192079
 20
115.948161
 30
0.0
 11
165.272079
 21
115.948161
 31
0.0
  0
LINE
  5
5F9
330
1E
100
AcDbEntity
  8
1
  6
Continuous
 62
     7
100
AcDbLine
 10
163.192079
 20
115.948161
 30
0.0
 11
165.272079
 21
115.948161
 31
0.0
  0
ARC
  5
5FA
330
1E
100
AcDbEntity
  8
1
  6
Continuous
 62
     7
100
AcDbCircle
 10
165.272079
 20
124.008161
 30
0.0
 40
0.26
100
AcDbArc
 50
270.0
 51
90.0
  0
ARC
  5
5FB
330
1E
100
AcDbEntity
  8
1
  6
Continuous
 62
     7
100
AcDbCircle
 10
163.192079
 20
124.008161
 30
0.0
 40
0.26
100
AcDbArc
 50
90.0
 51
270.0
  0
ARC
  5
5FC
330
1E
100
AcDbEntity
  8
1
  6
Continuous
 62
     7
100
AcDbCircle
 10
163.192079
 20
124.008161
 30
0.0
 40
0.26
100
AcDbArc
 50
90.0
 51
270.0
  0
ARC
  5
5FD
330
1E
100
AcDbEntity
  8
1
  6
Continuous
 62
     7
100
AcDbCircle
 10
165.272079
 20
124.008161
 30
0.0
 40
0.26
100
AcDbArc
 50
270.0
 51
90.0
  0
LINE
  5
5FE
330
1E
100
AcDbEntity
  8
1
  6
Continuous
 62
     7
100
AcDbLine
 10
163.192079
 20
124.2681609999999
 30
0.0
 11
165.272079
 21
124.2681609999999
 31
0.0
  0
LINE
  5
5FF
330
1E
100
AcDbEntity
  8
1
  6
Continuous
 62
     7
100
AcDbLine
 10
163.192079
 20
124.2681609999999
 30
0.0
 11
165.272079
 21
124.2681609999999
 31
0.0
  0
LINE
  5
600
330
1E
100
AcDbEntity
  8
1
  6
Continuous
 62
     7
100
AcDbLine
 10
163.192079
 20
124.2681609999999
 30
0.0
 11
165.272079
 21
124.2681609999999
 31
0.0
  0
LINE
  5
601
330
1E
100
AcDbEntity
  8
1
  6
Continuous
 62
     7
100
AcDbLine
 10
163.192079
 20
124.2681609999999
 30
0.0
 11
165.272079
 21
124.2681609999999
 31
0.0
  0
ARC
  5
602
330
1E
100
AcDbEntity
  8
1
  6
Continuous
 62
     7
100
AcDbCircle
 10
165.272079
 20
120.108161
 30
0.0
 40
0.26
100
AcDbArc
 50
270.0
 51
90.0
  0
ARC
  5
603
330
1E
100
AcDbEntity
  8
1
  6
Continuous
 62
     7
100
AcDbCircle
 10
163.192079
 20
120.108161
 30
0.0
 40
0.26
100
AcDbArc
 50
90.0
 51
270.0
  0
ARC
  5
604
330
1E
100
AcDbEntity
  8
1
  6
Continuous
 62
     7
100
AcDbCircle
 10
163.192079
 20
120.108161
 30
0.0
 40
0.26
100
AcDbArc
 50
90.0
 51
270.0
  0
ARC
  5
605
330
1E
100
AcDbEntity
  8
1
  6
Continuous
 62
     7
100
AcDbCircle
 10
165.272079
 20
120.108161
 30
0.0
 40
0.26
100
AcDbArc
 50
270.0
 51
90.0
  0
ARC
  5
606
330
1E
100
AcDbEntity
  8
1
  6
Continuous
 62
     7
100
AcDbCircle
 10
165.272079
 20
120.108161
 30
0.0
 40
0.26
100
AcDbArc
 50
270.0
 51
90.0
  0
ARC
  5
607
330
1E
100
AcDbEntity
  8
1
  6
Continuous
 62
     7
100
AcDbCircle
 10
163.192079
 20
120.108161
 30
0.0
 40
0.26
100
AcDbArc
 50
90.0
 51
270.0
  0
ARC
  5
608
330
1E
100
AcDbEntity
  8
1
  6
Continuous
 62
     7
100
AcDbCircle
 10
163.192079
 20
120.108161
 30
0.0
 40
0.26
100
AcDbArc
 50
90.0
 51
270.0
  0
ARC
  5
609
330
1E
100
AcDbEntity
  8
1
  6
Continuous
 62
     7
100
AcDbCircle
 10
165.272079
 20
120.108161
 30
0.0
 40
0.26
100
AcDbArc
 50
270.0
 51
90.0
  0
LINE
  5
60A
330
1E
100
AcDbEntity
  8
1
  6
Continuous
 62
     7
100
AcDbLine
 10
163.192079
 20
119.8481609999999
 30
0.0
 11
165.272079
 21
119.8481609999999
 31
0.0
  0
LINE
  5
60B
330
1E
100
AcDbEntity
  8
1
  6
Continuous
 62
     7
100
AcDbLine
 10
163.192079
 20
119.8481609999999
 30
0.0
 11
165.272079
 21
119.8481609999999
 31
0.0
  0
LINE
  5
60C
330
1E
100
AcDbEntity
  8
1
  6
Continuous
 62
     7
100
AcDbLine
 10
163.192079
 20
119.8481609999999
 30
0.0
 11
165.272079
 21
119.8481609999999
 31
0.0
  0
LINE
  5
60D
330
1E
100
AcDbEntity
  8
1
  6
Continuous
 62
     7
100
AcDbLine
 10
163.192079
 20
119.8481609999999
 30
0.0
 11
165.272079
 21
119.8481609999999
 31
0.0
  0
ARC
  5
60E
330
1E
100
AcDbEntity
  8
1
  6
Continuous
 62
     7
100
AcDbCircle
 10
163.322079
 20
118.158161
 30
0.0
 40
0.26
100
AcDbArc
 50
270.0
 51
90.0
  0
LINE
  5
60F
330
1E
100
AcDbEntity
  8
1
  6
Continuous
 62
     7
100
AcDbLine
 10
161.2420789999999
 20
118.418161
 30
0.0
 11
163.322079
 21
118.418161
 31
0.0
  0
LINE
  5
610
330
1E
100
AcDbEntity
  8
1
  6
Continuous
 62
     7
100
AcDbLine
 10
161.2420789999999
 20
117.898161
 30
0.0
 11
163.322079
 21
117.898161
 31
0.0
  0
ARC
  5
611
330
1E
100
AcDbEntity
  8
1
  6
Continuous
 62
     7
100
AcDbCircle
 10
161.2420789999999
 20
118.158161
 30
0.0
 40
0.26
100
AcDbArc
 50
90.0
 51
270.0
  0
ARC
  5
612
330
1E
100
AcDbEntity
  8
1
  6
Continuous
 62
     7
100
AcDbCircle
 10
161.2420789999999
 20
118.158161
 30
0.0
 40
0.26
100
AcDbArc
 50
90.0
 51
270.0
  0
LINE
  5
613
330
1E
100
AcDbEntity
  8
1
  6
Continuous
 62
     7
100
AcDbLine
 10
161.2420789999999
 20
125.698161
 30
0.0
 11
163.322079
 21
125.698161
 31
0.0
  0
LINE
  5
614
330
1E
100
AcDbEntity
  8
1
  6
Continuous
 62
     7
100
AcDbLine
 10
161.2420789999999
 20
121.798161
 30
0.0
 11
163.322079
 21
121.798161
 31
0.0
  0
ARC
  5
615
330
1E
100
AcDbEntity
  8
1
  6
Continuous
 62
     7
100
AcDbCircle
 10
161.2420789999999
 20
122.058161
 30
0.0
 40
0.26
100
AcDbArc
 50
90.0
 51
270.0
  0
ARC
  5
616
330
1E
100
AcDbEntity
  8
1
  6
Continuous
 62
     7
100
AcDbCircle
 10
161.2420789999999
 20
122.058161
 30
0.0
 40
0.26
100
AcDbArc
 50
90.0
 51
270.0
  0
LINE
  5
617
330
1E
100
AcDbEntity
  8
1
  6
Continuous
 62
     7
100
AcDbLine
 10
161.2420789999999
 20
121.798161
 30
0.0
 11
163.322079
 21
121.798161
 31
0.0
  0
LINE
  5
618
330
1E
100
AcDbEntity
  8
1
  6
Continuous
 62
     7
100
AcDbLine
 10
161.2420789999999
 20
122.318161
 30
0.0
 11
163.322079
 21
122.318161
 31
0.0
  0
ARC
  5
619
330
1E
100
AcDbEntity
  8
1
  6
Continuous
 62
     7
100
AcDbCircle
 10
163.322079
 20
122.058161
 30
0.0
 40
0.26
100
AcDbArc
 50
270.0
 51
90.0
  0
ARC
  5
61A
330
1E
100
AcDbEntity
  8
1
  6
Continuous
 62
     7
100
AcDbCircle
 10
163.322079
 20
122.058161
 30
0.0
 40
0.26
100
AcDbArc
 50
270.0
 51
90.0
  0
LINE
  5
61B
330
1E
100
AcDbEntity
  8
1
  6
Continuous
 62
     7
100
AcDbLine
 10
161.2420789999999
 20
122.318161
 30
0.0
 11
163.322079
 21
122.318161
 31
0.0
  0
LINE
  5
61C
330
1E
100
AcDbEntity
  8
1
  6
Continuous
 62
     7
100
AcDbLine
 10
161.2420789999999
 20
121.798161
 30
0.0
 11
163.322079
 21
121.798161
 31
0.0
  0
ARC
  5
61D
330
1E
100
AcDbEntity
  8
1
  6
Continuous
 62
     7
100
AcDbCircle
 10
161.2420789999999
 20
122.058161
 30
0.0
 40
0.26
100
AcDbArc
 50
90.0
 51
270.0
  0
ARC
  5
61E
330
1E
100
AcDbEntity
  8
1
  6
Continuous
 62
     7
100
AcDbCircle
 10
161.2420789999999
 20
122.058161
 30
0.0
 40
0.26
100
AcDbArc
 50
90.0
 51
270.0
  0
LINE
  5
61F
330
1E
100
AcDbEntity
  8
1
  6
Continuous
 62
     7
100
AcDbLine
 10
161.2420789999999
 20
121.798161
 30
0.0
 11
163.322079
 21
121.798161
 31
0.0
  0
LINE
  5
620
330
1E
100
AcDbEntity
  8
1
  6
Continuous
 62
     7
100
AcDbLine
 10
161.2420789999999
 20
122.318161
 30
0.0
 11
163.322079
 21
122.318161
 31
0.0
  0
ARC
  5
621
330
1E
100
AcDbEntity
  8
1
  6
Continuous
 62
     7
100
AcDbCircle
 10
163.322079
 20
122.058161
 30
0.0
 40
0.26
100
AcDbArc
 50
270.0
 51
90.0
  0
ARC
  5
622
330
1E
100
AcDbEntity
  8
1
  6
Continuous
 62
     7
100
AcDbCircle
 10
163.322079
 20
122.058161
 30
0.0
 40
0.26
100
AcDbArc
 50
270.0
 51
90.0
  0
LINE
  5
623
330
1E
100
AcDbEntity
  8
1
  6
Continuous
 62
     7
100
AcDbLine
 10
161.2420789999999
 20
122.318161
 30
0.0
 11
163.322079
 21
122.318161
 31
0.0
  0
LINE
  5
624
330
1E
100
AcDbEntity
  8
1
  6
Continuous
 62
     7
100
AcDbLine
 10
163.192079
 20
123.748161
 30
0.0
 11
165.272079
 21
123.748161
 31
0.0
  0
LINE
  5
625
330
1E
100
AcDbEntity
  8
1
  6
Continuous
 62
     7
100
AcDbLine
 10
163.192079
 20
123.748161
 30
0.0
 11
165.272079
 21
123.748161
 31
0.0
  0
LINE
  5
626
330
1E
100
AcDbEntity
  8
1
  6
Continuous
 62
     7
100
AcDbLine
 10
163.192079
 20
123.748161
 30
0.0
 11
165.272079
 21
123.748161
 31
0.0
  0
LINE
  5
627
330
1E
100
AcDbEntity
  8
1
  6
Continuous
 62
     7
100
AcDbLine
 10
163.192079
 20
123.748161
 30
0.0
 11
165.272079
 21
123.748161
 31
0.0
  0
ARC
  5
628
330
1E
100
AcDbEntity
  8
1
  6
Continuous
 62
     7
100
AcDbCircle
 10
165.272079
 20
124.008161
 30
0.0
 40
0.26
100
AcDbArc
 50
270.0
 51
90.0
  0
ARC
  5
629
330
1E
100
AcDbEntity
  8
1
  6
Continuous
 62
     7
100
AcDbCircle
 10
163.192079
 20
124.008161
 30
0.0
 40
0.26
100
AcDbArc
 50
90.0
 51
270.0
  0
ARC
  5
62A
330
1E
100
AcDbEntity
  8
1
  6
Continuous
 62
     7
100
AcDbCircle
 10
163.192079
 20
124.008161
 30
0.0
 40
0.26
100
AcDbArc
 50
90.0
 51
270.0
  0
ARC
  5
62B
330
1E
100
AcDbEntity
  8
1
  6
Continuous
 62
     7
100
AcDbCircle
 10
165.272079
 20
124.008161
 30
0.0
 40
0.26
100
AcDbArc
 50
270.0
 51
90.0
  0
LINE
  5
62C
330
1E
100
AcDbEntity
  8
1
  6
Continuous
 62
     7
100
AcDbLine
 10
161.2420789999999
 20
102.818161
 30
0.0
 11
163.322079
 21
102.818161
 31
0.0
  0
ARC
  5
62D
330
1E
100
AcDbEntity
  8
1
  6
Continuous
 62
     7
100
AcDbCircle
 10
163.322079
 20
102.5581609999999
 30
0.0
 40
0.26
100
AcDbArc
 50
270.0
 51
90.0
  0
ARC
  5
62E
330
1E
100
AcDbEntity
  8
1
  6
Continuous
 62
     7
100
AcDbCircle
 10
163.322079
 20
102.5581609999999
 30
0.0
 40
0.26
100
AcDbArc
 50
270.0
 51
90.0
  0
LINE
  5
62F
330
1E
100
AcDbEntity
  8
1
  6
Continuous
 62
     7
100
AcDbLine
 10
161.2420789999999
 20
102.818161
 30
0.0
 11
163.322079
 21
102.818161
 31
0.0
  0
LINE
  5
630
330
1E
100
AcDbEntity
  8
1
  6
Continuous
 62
     7
100
AcDbLine
 10
161.2420789999999
 20
102.2981609999999
 30
0.0
 11
163.322079
 21
102.2981609999999
 31
0.0
  0
ARC
  5
631
330
1E
100
AcDbEntity
  8
1
  6
Continuous
 62
     7
100
AcDbCircle
 10
161.2420789999999
 20
102.5581609999999
 30
0.0
 40
0.26
100
AcDbArc
 50
90.0
 51
270.0
  0
ARC
  5
632
330
1E
100
AcDbEntity
  8
1
  6
Continuous
 62
     7
100
AcDbCircle
 10
161.2420789999999
 20
102.5581609999999
 30
0.0
 40
0.26
100
AcDbArc
 50
90.0
 51
270.0
  0
LINE
  5
633
330
1E
100
AcDbEntity
  8
1
  6
Continuous
 62
     7
100
AcDbLine
 10
161.2420789999999
 20
102.2981609999999
 30
0.0
 11
163.322079
 21
102.2981609999999
 31
0.0
  0
LINE
  5
634
330
1E
100
AcDbEntity
  8
1
  6
Continuous
 62
     7
100
AcDbLine
 10
161.2420789999999
 20
102.818161
 30
0.0
 11
163.322079
 21
102.818161
 31
0.0
  0
ARC
  5
635
330
1E
100
AcDbEntity
  8
1
  6
Continuous
 62
     7
100
AcDbCircle
 10
163.322079
 20
102.5581609999999
 30
0.0
 40
0.26
100
AcDbArc
 50
270.0
 51
90.0
  0
LINE
  5
636
330
1E
100
AcDbEntity
  8
1
  6
Continuous
 62
     7
100
AcDbLine
 10
161.2420789999999
 20
126.218161
 30
0.0
 11
163.322079
 21
126.218161
 31
0.0
  0
ARC
  5
637
330
1E
100
AcDbEntity
  8
1
  6
Continuous
 62
     7
100
AcDbCircle
 10
163.322079
 20
125.958161
 30
0.0
 40
0.26
100
AcDbArc
 50
270.0
 51
90.0
  0
ARC
  5
638
330
1E
100
AcDbEntity
  8
1
  6
Continuous
 62
     7
100
AcDbCircle
 10
163.322079
 20
125.958161
 30
0.0
 40
0.26
100
AcDbArc
 50
270.0
 51
90.0
  0
LINE
  5
639
330
1E
100
AcDbEntity
  8
1
  6
Continuous
 62
     7
100
AcDbLine
 10
161.2420789999999
 20
126.218161
 30
0.0
 11
163.322079
 21
126.218161
 31
0.0
  0
LINE
  5
63A
330
1E
100
AcDbEntity
  8
1
  6
Continuous
 62
     7
100
AcDbLine
 10
161.2420789999999
 20
125.698161
 30
0.0
 11
163.322079
 21
125.698161
 31
0.0
  0
ARC
  5
63B
330
1E
100
AcDbEntity
  8
1
  6
Continuous
 62
     7
100
AcDbCircle
 10
161.2420789999999
 20
125.958161
 30
0.0
 40
0.26
100
AcDbArc
 50
90.0
 51
270.0
  0
ARC
  5
63C
330
1E
100
AcDbEntity
  8
1
  6
Continuous
 62
     7
100
AcDbCircle
 10
161.2420789999999
 20
125.958161
 30
0.0
 40
0.26
100
AcDbArc
 50
90.0
 51
270.0
  0
LINE
  5
63D
330
1E
100
AcDbEntity
  8
1
  6
Continuous
 62
     7
100
AcDbLine
 10
161.2420789999999
 20
125.698161
 30
0.0
 11
163.322079
 21
125.698161
 31
0.0
  0
LINE
  5
63E
330
1E
100
AcDbEntity
  8
1
  6
Continuous
 62
     7
100
AcDbLine
 10
161.2420789999999
 20
126.218161
 30
0.0
 11
163.322079
 21
126.218161
 31
0.0
  0
ARC
  5
63F
330
1E
100
AcDbEntity
  8
1
  6
Continuous
 62
     7
100
AcDbCircle
 10
163.322079
 20
125.958161
 30
0.0
 40
0.26
100
AcDbArc
 50
270.0
 51
90.0
  0
ARC
  5
640
330
1E
100
AcDbEntity
  8
1
  6
Continuous
 62
     7
100
AcDbCircle
 10
163.322079
 20
125.958161
 30
0.0
 40
0.26
100
AcDbArc
 50
270.0
 51
90.0
  0
LINE
  5
641
330
1E
100
AcDbEntity
  8
1
  6
Continuous
 62
     7
100
AcDbLine
 10
161.2420789999999
 20
126.218161
 30
0.0
 11
163.322079
 21
126.218161
 31
0.0
  0
LINE
  5
642
330
1E
100
AcDbEntity
  8
1
  6
Continuous
 62
     7
100
AcDbLine
 10
161.2420789999999
 20
125.698161
 30
0.0
 11
163.322079
 21
125.698161
 31
0.0
  0
ARC
  5
643
330
1E
100
AcDbEntity
  8
1
  6
Continuous
 62
     7
100
AcDbCircle
 10
161.2420789999999
 20
125.958161
 30
0.0
 40
0.26
100
AcDbArc
 50
90.0
 51
270.0
  0
ARC
  5
644
330
1E
100
AcDbEntity
  8
1
  6
Continuous
 62
     7
100
AcDbCircle
 10
161.2420789999999
 20
125.958161
 30
0.0
 40
0.26
100
AcDbArc
 50
90.0
 51
270.0
  0
ARC
  5
645
330
1E
100
AcDbEntity
  8
1
  6
Continuous
 62
     7
100
AcDbCircle
 10
165.272079
 20
100.608161
 30
0.0
 40
0.26
100
AcDbArc
 50
270.0
 51
90.0
  0
LINE
  5
646
330
1E
100
AcDbEntity
  8
1
  6
Continuous
 62
     7
100
AcDbLine
 10
163.192079
 20
100.868161
 30
0.0
 11
165.272079
 21
100.868161
 31
0.0
  0
LINE
  5
647
330
1E
100
AcDbEntity
  8
1
  6
Continuous
 62
     7
100
AcDbLine
 10
163.192079
 20
100.868161
 30
0.0
 11
165.272079
 21
100.868161
 31
0.0
  0
LINE
  5
648
330
1E
100
AcDbEntity
  8
1
  6
Continuous
 62
     7
100
AcDbLine
 10
163.192079
 20
100.868161
 30
0.0
 11
165.272079
 21
100.868161
 31
0.0
  0
LINE
  5
649
330
1E
100
AcDbEntity
  8
1
  6
Continuous
 62
     7
100
AcDbLine
 10
163.192079
 20
100.868161
 30
0.0
 11
165.272079
 21
100.868161
 31
0.0
  0
ARC
  5
64A
330
1E
100
AcDbEntity
  8
1
  6
Continuous
 62
     7
100
AcDbCircle
 10
163.322079
 20
98.65816099999999
 30
0.0
 40
0.26
100
AcDbArc
 50
270.0
 51
90.0
  0
LINE
  5
64B
330
1E
100
AcDbEntity
  8
1
  6
Continuous
 62
     7
100
AcDbLine
 10
161.2420789999999
 20
98.91816099999999
 30
0.0
 11
163.322079
 21
98.91816099999999
 31
0.0
  0
LINE
  5
64C
330
1E
100
AcDbEntity
  8
1
  6
Continuous
 62
     7
100
AcDbLine
 10
161.2420789999999
 20
98.398161
 30
0.0
 11
163.322079
 21
98.398161
 31
0.0
  0
ARC
  5
64D
330
1E
100
AcDbEntity
  8
1
  6
Continuous
 62
     7
100
AcDbCircle
 10
161.2420789999999
 20
98.65816099999999
 30
0.0
 40
0.26
100
AcDbArc
 50
90.0
 51
270.0
  0
ARC
  5
64E
330
1E
100
AcDbEntity
  8
1
  6
Continuous
 62
     7
100
AcDbCircle
 10
161.2420789999999
 20
98.65816099999999
 30
0.0
 40
0.26
100
AcDbArc
 50
90.0
 51
270.0
  0
LINE
  5
64F
330
1E
100
AcDbEntity
  8
1
  6
Continuous
 62
     7
100
AcDbLine
 10
161.2420789999999
 20
98.398161
 30
0.0
 11
163.322079
 21
98.398161
 31
0.0
  0
LINE
  5
650
330
1E
100
AcDbEntity
  8
1
  6
Continuous
 62
     7
100
AcDbLine
 10
161.2420789999999
 20
98.91816099999999
 30
0.0
 11
163.322079
 21
98.91816099999999
 31
0.0
  0
ARC
  5
651
330
1E
100
AcDbEntity
  8
1
  6
Continuous
 62
     7
100
AcDbCircle
 10
163.322079
 20
98.65816099999999
 30
0.0
 40
0.26
100
AcDbArc
 50
270.0
 51
90.0
  0
ARC
  5
652
330
1E
100
AcDbEntity
  8
1
  6
Continuous
 62
     7
100
AcDbCircle
 10
163.322079
 20
98.65816099999999
 30
0.0
 40
0.26
100
AcDbArc
 50
270.0
 51
90.0
  0
LINE
  5
653
330
1E
100
AcDbEntity
  8
1
  6
Continuous
 62
     7
100
AcDbLine
 10
161.2420789999999
 20
98.91816099999999
 30
0.0
 11
163.322079
 21
98.91816099999999
 31
0.0
  0
LINE
  5
654
330
1E
100
AcDbEntity
  8
1
  6
Continuous
 62
     7
100
AcDbLine
 10
163.192079
 20
104.248161
 30
0.0
 11
165.272079
 21
104.248161
 31
0.0
  0
LINE
  5
655
330
1E
100
AcDbEntity
  8
1
  6
Continuous
 62
     7
100
AcDbLine
 10
163.192079
 20
104.248161
 30
0.0
 11
165.272079
 21
104.248161
 31
0.0
  0
LINE
  5
656
330
1E
100
AcDbEntity
  8
1
  6
Continuous
 62
     7
100
AcDbLine
 10
163.192079
 20
104.248161
 30
0.0
 11
165.272079
 21
104.248161
 31
0.0
  0
LINE
  5
657
330
1E
100
AcDbEntity
  8
1
  6
Continuous
 62
     7
100
AcDbLine
 10
163.192079
 20
104.248161
 30
0.0
 11
165.272079
 21
104.248161
 31
0.0
  0
ARC
  5
658
330
1E
100
AcDbEntity
  8
1
  6
Continuous
 62
     7
100
AcDbCircle
 10
163.322079
 20
102.5581609999999
 30
0.0
 40
0.26
100
AcDbArc
 50
270.0
 51
90.0
  0
LINE
  5
659
330
1E
100
AcDbEntity
  8
1
  6
Continuous
 62
     7
100
AcDbLine
 10
161.2420789999999
 20
102.818161
 30
0.0
 11
163.322079
 21
102.818161
 31
0.0
  0
LINE
  5
65A
330
1E
100
AcDbEntity
  8
1
  6
Continuous
 62
     7
100
AcDbLine
 10
161.2420789999999
 20
102.2981609999999
 30
0.0
 11
163.322079
 21
102.2981609999999
 31
0.0
  0
ARC
  5
65B
330
1E
100
AcDbEntity
  8
1
  6
Continuous
 62
     7
100
AcDbCircle
 10
161.2420789999999
 20
102.5581609999999
 30
0.0
 40
0.26
100
AcDbArc
 50
90.0
 51
270.0
  0
ARC
  5
65C
330
1E
100
AcDbEntity
  8
1
  6
Continuous
 62
     7
100
AcDbCircle
 10
161.2420789999999
 20
102.5581609999999
 30
0.0
 40
0.26
100
AcDbArc
 50
90.0
 51
270.0
  0
LINE
  5
65D
330
1E
100
AcDbEntity
  8
1
  6
Continuous
 62
     7
100
AcDbLine
 10
161.2420789999999
 20
102.2981609999999
 30
0.0
 11
163.322079
 21
102.2981609999999
 31
0.0
  0
ARC
  5
65E
330
1E
100
AcDbEntity
  8
1
  6
Continuous
 62
     7
100
AcDbCircle
 10
165.272079
 20
104.5081609999999
 30
0.0
 40
0.26
100
AcDbArc
 50
270.0
 51
90.0
  0
ARC
  5
65F
330
1E
100
AcDbEntity
  8
1
  6
Continuous
 62
     7
100
AcDbCircle
 10
163.192079
 20
104.5081609999999
 30
0.0
 40
0.26
100
AcDbArc
 50
90.0
 51
270.0
  0
ARC
  5
660
330
1E
100
AcDbEntity
  8
1
  6
Continuous
 62
     7
100
AcDbCircle
 10
163.192079
 20
104.5081609999999
 30
0.0
 40
0.26
100
AcDbArc
 50
90.0
 51
270.0
  0
ARC
  5
661
330
1E
100
AcDbEntity
  8
1
  6
Continuous
 62
     7
100
AcDbCircle
 10
165.272079
 20
104.5081609999999
 30
0.0
 40
0.26
100
AcDbArc
 50
270.0
 51
90.0
  0
ARC
  5
662
330
1E
100
AcDbEntity
  8
1
  6
Continuous
 62
     7
100
AcDbCircle
 10
165.272079
 20
104.5081609999999
 30
0.0
 40
0.26
100
AcDbArc
 50
270.0
 51
90.0
  0
ARC
  5
663
330
1E
100
AcDbEntity
  8
1
  6
Continuous
 62
     7
100
AcDbCircle
 10
163.192079
 20
104.5081609999999
 30
0.0
 40
0.26
100
AcDbArc
 50
90.0
 51
270.0
  0
ARC
  5
664
330
1E
100
AcDbEntity
  8
1
  6
Continuous
 62
     7
100
AcDbCircle
 10
163.192079
 20
104.5081609999999
 30
0.0
 40
0.26
100
AcDbArc
 50
90.0
 51
270.0
  0
ARC
  5
665
330
1E
100
AcDbEntity
  8
1
  6
Continuous
 62
     7
100
AcDbCircle
 10
165.272079
 20
104.5081609999999
 30
0.0
 40
0.26
100
AcDbArc
 50
270.0
 51
90.0
  0
LINE
  5
666
330
1E
100
AcDbEntity
  8
1
  6
Continuous
 62
     7
100
AcDbLine
 10
161.2420789999999
 20
98.398161
 30
0.0
 11
163.322079
 21
98.398161
 31
0.0
  0
ARC
  5
667
330
1E
100
AcDbEntity
  8
1
  6
Continuous
 62
     7
100
AcDbCircle
 10
161.2420789999999
 20
98.65816099999999
 30
0.0
 40
0.26
100
AcDbArc
 50
90.0
 51
270.0
  0
ARC
  5
668
330
1E
100
AcDbEntity
  8
1
  6
Continuous
 62
     7
100
AcDbCircle
 10
161.2420789999999
 20
98.65816099999999
 30
0.0
 40
0.26
100
AcDbArc
 50
90.0
 51
270.0
  0
LINE
  5
669
330
1E
100
AcDbEntity
  8
1
  6
Continuous
 62
     7
100
AcDbLine
 10
161.2420789999999
 20
98.398161
 30
0.0
 11
163.322079
 21
98.398161
 31
0.0
  0
LINE
  5
66A
330
1E
100
AcDbEntity
  8
1
  6
Continuous
 62
     7
100
AcDbLine
 10
161.2420789999999
 20
98.91816099999999
 30
0.0
 11
163.322079
 21
98.91816099999999
 31
0.0
  0
ARC
  5
66B
330
1E
100
AcDbEntity
  8
1
  6
Continuous
 62
     7
100
AcDbCircle
 10
163.322079
 20
98.65816099999999
 30
0.0
 40
0.26
100
AcDbArc
 50
270.0
 51
90.0
  0
LINE
  5
66C
330
1E
100
AcDbEntity
  8
1
  6
Continuous
 62
     7
100
AcDbLine
 10
163.192079
 20
100.348161
 30
0.0
 11
165.272079
 21
100.348161
 31
0.0
  0
LINE
  5
66D
330
1E
100
AcDbEntity
  8
1
  6
Continuous
 62
     7
100
AcDbLine
 10
163.192079
 20
100.348161
 30
0.0
 11
165.272079
 21
100.348161
 31
0.0
  0
LINE
  5
66E
330
1E
100
AcDbEntity
  8
1
  6
Continuous
 62
     7
100
AcDbLine
 10
163.192079
 20
100.348161
 30
0.0
 11
165.272079
 21
100.348161
 31
0.0
  0
LINE
  5
66F
330
1E
100
AcDbEntity
  8
1
  6
Continuous
 62
     7
100
AcDbLine
 10
163.192079
 20
100.348161
 30
0.0
 11
165.272079
 21
100.348161
 31
0.0
  0
ARC
  5
670
330
1E
100
AcDbEntity
  8
1
  6
Continuous
 62
     7
100
AcDbCircle
 10
165.272079
 20
100.608161
 30
0.0
 40
0.26
100
AcDbArc
 50
270.0
 51
90.0
  0
ARC
  5
671
330
1E
100
AcDbEntity
  8
1
  6
Continuous
 62
     7
100
AcDbCircle
 10
163.192079
 20
100.608161
 30
0.0
 40
0.26
100
AcDbArc
 50
90.0
 51
270.0
  0
ARC
  5
672
330
1E
100
AcDbEntity
  8
1
  6
Continuous
 62
     7
100
AcDbCircle
 10
163.192079
 20
100.608161
 30
0.0
 40
0.26
100
AcDbArc
 50
90.0
 51
270.0
  0
ARC
  5
673
330
1E
100
AcDbEntity
  8
1
  6
Continuous
 62
     7
100
AcDbCircle
 10
165.272079
 20
100.608161
 30
0.0
 40
0.26
100
AcDbArc
 50
270.0
 51
90.0
  0
ARC
  5
674
330
1E
100
AcDbEntity
  8
1
  6
Continuous
 62
     7
100
AcDbCircle
 10
165.272079
 20
100.608161
 30
0.0
 40
0.26
100
AcDbArc
 50
270.0
 51
90.0
  0
ARC
  5
675
330
1E
100
AcDbEntity
  8
1
  6
Continuous
 62
     7
100
AcDbCircle
 10
163.192079
 20
100.608161
 30
0.0
 40
0.26
100
AcDbArc
 50
90.0
 51
270.0
  0
ARC
  5
676
330
1E
100
AcDbEntity
  8
1
  6
Continuous
 62
     7
100
AcDbCircle
 10
163.192079
 20
100.608161
 30
0.0
 40
0.26
100
AcDbArc
 50
90.0
 51
270.0
  0
LINE
  5
677
330
1E
100
AcDbEntity
  8
1
  6
Continuous
 62
     7
100
AcDbLine
 10
180.4820789999999
 20
133.7581609999999
 30
0.0
 11
180.4820789999999
 21
92.15816099999999
 31
0.0
  0
LINE
  5
678
330
1E
100
AcDbEntity
  8
1
  6
Continuous
 62
     7
100
AcDbLine
 10
172.9420789999999
 20
98.398161
 30
0.0
 11
175.022079
 21
98.398161
 31
0.0
  0
ARC
  5
679
330
1E
100
AcDbEntity
  8
1
  6
Continuous
 62
     7
100
AcDbCircle
 10
175.022079
 20
98.65816099999999
 30
0.0
 40
0.26
100
AcDbArc
 50
270.0
 51
90.0
  0
LINE
  5
67A
330
1E
100
AcDbEntity
  8
1
  6
Continuous
 62
     7
100
AcDbLine
 10
172.9420789999999
 20
98.91816099999999
 30
0.0
 11
175.022079
 21
98.91816099999999
 31
0.0
  0
ARC
  5
67B
330
1E
100
AcDbEntity
  8
1
  6
Continuous
 62
     7
100
AcDbCircle
 10
175.022079
 20
98.65816099999999
 30
0.0
 40
0.26
100
AcDbArc
 50
270.0
 51
90.0
  0
LINE
  5
67C
330
1E
100
AcDbEntity
  8
1
  6
Continuous
 62
     7
100
AcDbLine
 10
172.9420789999999
 20
98.398161
 30
0.0
 11
175.022079
 21
98.398161
 31
0.0
  0
LINE
  5
67D
330
1E
100
AcDbEntity
  8
1
  6
Continuous
 62
     7
100
AcDbLine
 10
172.9420789999999
 20
98.91816099999999
 30
0.0
 11
175.022079
 21
98.91816099999999
 31
0.0
  0
ARC
  5
67E
330
1E
100
AcDbEntity
  8
1
  6
Continuous
 62
     7
100
AcDbCircle
 10
175.022079
 20
98.65816099999999
 30
0.0
 40
0.26
100
AcDbArc
 50
270.0
 51
90.0
  0
ARC
  5
67F
330
1E
100
AcDbEntity
  8
1
  6
Continuous
 62
     7
100
AcDbCircle
 10
172.9420789999999
 20
98.65816099999999
 30
0.0
 40
0.26
100
AcDbArc
 50
90.0
 51
270.0
  0
ARC
  5
680
330
1E
100
AcDbEntity
  8
1
  6
Continuous
 62
     7
100
AcDbCircle
 10
172.9420789999999
 20
98.65816099999999
 30
0.0
 40
0.26
100
AcDbArc
 50
90.0
 51
270.0
  0
LINE
  5
681
330
1E
100
AcDbEntity
  8
1
  6
Continuous
 62
     7
100
AcDbLine
 10
172.9420789999999
 20
98.398161
 30
0.0
 11
175.022079
 21
98.398161
 31
0.0
  0
ARC
  5
682
330
1E
100
AcDbEntity
  8
1
  6
Continuous
 62
     7
100
AcDbCircle
 10
172.9420789999999
 20
98.65816099999999
 30
0.0
 40
0.26
100
AcDbArc
 50
90.0
 51
270.0
  0
ARC
  5
683
330
1E
100
AcDbEntity
  8
1
  6
Continuous
 62
     7
100
AcDbCircle
 10
175.022079
 20
98.65816099999999
 30
0.0
 40
0.26
100
AcDbArc
 50
270.0
 51
90.0
  0
LINE
  5
684
330
1E
100
AcDbEntity
  8
1
  6
Continuous
 62
     7
100
AcDbLine
 10
172.9420789999999
 20
98.91816099999999
 30
0.0
 11
175.022079
 21
98.91816099999999
 31
0.0
  0
LINE
  5
685
330
1E
100
AcDbEntity
  8
1
  6
Continuous
 62
     7
100
AcDbLine
 10
172.9420789999999
 20
98.91816099999999
 30
0.0
 11
175.022079
 21
98.91816099999999
 31
0.0
  0
LINE
  5
686
330
1E
100
AcDbEntity
  8
1
  6
Continuous
 62
     7
100
AcDbLine
 10
172.9420789999999
 20
98.398161
 30
0.0
 11
175.022079
 21
98.398161
 31
0.0
  0
LINE
  5
687
330
1E
100
AcDbEntity
  8
1
  6
Continuous
 62
     7
100
AcDbLine
 10
180.4820789999999
 20
92.15816099999999
 30
0.0
 11
102.4820789999999
 21
92.15816099999999
 31
0.0
  0
LINE
  5
688
330
1E
100
AcDbEntity
  8
1
  6
Continuous
 62
     7
100
AcDbLine
 10
180.4820789999999
 20
92.15816099999999
 30
0.0
 11
102.4820789999999
 21
92.15816099999999
 31
0.0
  0
LINE
  5
689
330
1E
100
AcDbEntity
  8
1
  6
Continuous
 62
     7
100
AcDbLine
 10
180.4820789999999
 20
137.658161
 30
0.0
 11
102.4820789999999
 21
137.658161
 31
0.0
  0
LINE
  5
68A
330
1E
100
AcDbEntity
  8
1
  6
Continuous
 62
     7
100
AcDbLine
 10
36.13187599999999
 20
92.15816099999999
 30
0.0
 11
36.13187599999999
 21
135.058161
 31
0.0
  0
LINE
  5
68B
330
1E
100
AcDbEntity
  8
1
  6
Continuous
 62
     7
100
AcDbLine
 10
102.4820789999999
 20
137.658161
 30
0.0
 11
102.4820789999999
 21
92.15816099999999
 31
0.0
  0
LINE
  5
68C
330
1E
100
AcDbEntity
  8
1
  6
Continuous
 62
     7
100
AcDbLine
 10
85.53187599999999
 20
135.058161
 30
0.0
 11
85.53187599999999
 21
92.15816099999999
 31
0.0
  0
ARC
  5
68D
330
1E
100
AcDbEntity
  8
1
  6
Continuous
 62
     7
100
AcDbCircle
 10
66.031876
 20
96.058161
 30
0.0
 40
1.3
100
AcDbArc
 50
0.0
 51
90.0
  0
ARC
  5
68E
330
1E
100
AcDbEntity
  8
1
  6
Continuous
 62
     7
100
AcDbCircle
 10
55.631876
 20
96.058161
 30
0.0
 40
1.3
100
AcDbArc
 50
90.0
 51
180.0
  0
ARC
  5
68F
330
1E
100
AcDbEntity
  8
1
  6
Continuous
 62
     7
100
AcDbCircle
 10
71.296876
 20
140.648161
 30
0.0
 40
2.209999999999999
100
AcDbArc
 50
0.0
 51
90.0
  0
ARC
  5
690
330
1E
100
AcDbEntity
  8
1
  6
Continuous
 62
     7
100
AcDbCircle
 10
136.282079
 20
142.078161
 30
0.0
 40
0.7800000000000001
100
AcDbArc
 50
359.999999
 51
180.000004
  0
LINE
  5
691
330
1E
100
AcDbEntity
  8
1
  6
Continuous
 62
     7
100
AcDbLine
 10
135.502079
 20
142.078161
 30
0.0
 11
135.502079
 21
137.658161
 31
0.0
  0
LINE
  5
692
330
1E
100
AcDbEntity
  8
1
  6
Continuous
 62
     7
100
AcDbLine
 10
137.062079
 20
142.078161
 30
0.0
 11
137.062079
 21
137.658161
 31
0.0
  0
LINE
  5
693
330
1E
100
AcDbEntity
  8
1
  6
Continuous
 62
     7
100
AcDbLine
 10
180.4820789999999
 20
137.658161
 30
0.0
 11
180.4820789999999
 21
92.15816099999999
 31
0.0
  0
LINE
  5
694
330
1E
100
AcDbEntity
  8
1
  6
Continuous
 62
     7
100
AcDbLine
 10
260.464785
 20
92.15816099999999
 30
0.0
 11
260.464785
 21
135.058161
 31
0.0
  0
LINE
  5
695
330
1E
100
AcDbEntity
  8
1
  6
Continuous
 62
     7
100
AcDbLine
 10
211.0647849999999
 20
135.058161
 30
0.0
 11
211.0647849999999
 21
92.15816099999999
 31
0.0
  0
ARC
  5
696
330
1E
100
AcDbEntity
  8
1
  6
Continuous
 62
     7
100
AcDbCircle
 10
80.981752
 20
77.485724
 30
0.0
 40
4.536656999999999
100
AcDbArc
 50
236.0284259999999
 51
303.9715739999999
  0
ARC
  5
697
330
1E
100
AcDbEntity
  8
1
  6
Continuous
 62
     7
100
AcDbCircle
 10
80.981752
 20
84.66207
 30
0.0
 40
4.536656999999999
100
AcDbArc
 50
56.02842599999999
 51
123.971574
  0
LINE
  5
698
330
1E
100
AcDbEntity
  8
1
  6
Continuous
 62
     7
100
AcDbLine
 10
85.01187599999999
 20
91.76816099999999
 30
0.0
 11
76.951876
 21
91.76816099999999
 31
0.0
  0
LINE
  5
699
330
1E
100
AcDbEntity
  8
1
  6
Continuous
 62
     7
100
AcDbLine
 10
79.869037
 20
106.8434899999999
 30
0.0
 11
83.85976199999999
 21
106.8434899999999
 31
0.0
  0
LINE
  5
69A
330
1E
100
AcDbEntity
  8
1
  6
Continuous
 62
     7
100
AcDbLine
 10
85.53187599999999
 20
112.958161
 30
0.0
 11
36.13187599999999
 21
112.958161
 31
0.0
  0
LINE
  5
69B
330
1E
100
AcDbEntity
  8
1
  6
Continuous
 62
     7
100
AcDbLine
 10
85.427876
 20
113.062161
 30
0.0
 11
36.235876
 21
113.062161
 31
0.0
  0
LINE
  5
69C
330
1E
100
AcDbEntity
  8
1
  6
Continuous
 62
     7
100
AcDbLine
 10
39.381876
 20
137.554161
 30
0.0
 11
81.631876
 21
137.554161
 31
0.0
  0
LINE
  5
69D
330
1E
100
AcDbEntity
  8
1
  6
Continuous
 62
     7
100
AcDbLine
 10
38.73187599999999
 20
137.658161
 30
0.0
 11
82.93187600000001
 21
137.658161
 31
0.0
  0
ARC
  5
69E
330
1E
100
AcDbEntity
  8
1
  6
Continuous
 62
     7
100
AcDbCircle
 10
40.681752
 20
84.66207
 30
0.0
 40
4.536656999999999
100
AcDbArc
 50
56.02842599999999
 51
123.971574
  0
LINE
  5
69F
330
1E
100
AcDbEntity
  8
1
  6
Continuous
 62
     7
100
AcDbLine
 10
77.925505
 20
80.66694899999999
 30
0.0
 11
77.925252
 21
79.09316099999999
 31
0.0
  0
LINE
  5
6A0
330
1E
100
AcDbEntity
  8
1
  6
Continuous
 62
     7
100
AcDbLine
 10
76.951876
 20
87.41586899999999
 30
0.0
 11
77.925505
 21
80.66694899999999
 31
0.0
  0
LINE
  5
6A1
330
1E
100
AcDbEntity
  8
1
  6
Continuous
 62
     7
100
AcDbLine
 10
76.951876
 20
87.41586899999999
 30
0.0
 11
76.951876
 21
91.76816099999999
 31
0.0
  0
LINE
  5
6A2
330
1E
100
AcDbEntity
  8
1
  6
Continuous
 62
     7
100
AcDbLine
 10
78.44525199999999
 20
79.09316099999999
 30
0.0
 11
77.60411999999999
 21
79.09316099999999
 31
0.0
  0
LINE
  5
6A3
330
1E
100
AcDbEntity
  8
1
  6
Continuous
 62
     7
100
AcDbLine
 10
77.60411999999999
 20
81.07379599999999
 30
0.0
 11
77.60411999999999
 21
79.09316099999999
 31
0.0
  0
LINE
  5
6A4
330
1E
100
AcDbEntity
  8
1
  6
Continuous
 62
     7
100
AcDbLine
 10
76.431876
 20
89.19945799999998
 30
0.0
 11
77.60411999999999
 21
81.07379599999999
 31
0.0
  0
LINE
  5
6A5
330
1E
100
AcDbEntity
  8
1
  6
Continuous
 62
     7
100
AcDbLine
 10
78.44675200000001
 20
88.424387
 30
0.0
 11
78.444389
 21
73.725001
 31
0.0
  0
LINE
  5
6A6
330
1E
100
AcDbEntity
  8
1
  6
Continuous
 62
     7
100
AcDbLine
 10
54.331876
 20
94.10816099999999
 30
0.0
 11
36.13187599999999
 21
94.10816099999999
 31
0.0
  0
LINE
  5
6A7
330
1E
100
AcDbEntity
  8
1
  6
Continuous
 62
     7
100
AcDbLine
 10
54.331876
 20
96.058161
 30
0.0
 11
54.331876
 21
94.10816099999999
 31
0.0
  0
LINE
  5
6A8
330
1E
100
AcDbEntity
  8
1
  6
Continuous
 62
     7
100
AcDbLine
 10
67.33187599999999
 20
96.058161
 30
0.0
 11
67.33187599999999
 21
94.10816099999999
 31
0.0
  0
LINE
  5
6A9
330
1E
100
AcDbEntity
  8
1
  6
Continuous
 62
     7
100
AcDbLine
 10
67.33187599999999
 20
94.10816099999999
 30
0.0
 11
54.331876
 21
94.10816099999999
 31
0.0
  0
LINE
  5
6AA
330
1E
100
AcDbEntity
  8
1
  6
Continuous
 62
     7
100
AcDbLine
 10
67.33187599999999
 20
94.31616099999999
 30
0.0
 11
54.331876
 21
94.31616099999999
 31
0.0
  0
LINE
  5
6AB
330
1E
100
AcDbEntity
  8
1
  6
Continuous
 62
     7
100
AcDbLine
 10
36.13187599999999
 20
89.19945799999998
 30
0.0
 11
36.13187599999999
 21
92.15816099999999
 31
0.0
  0
ARC
  5
6AC
330
1E
100
AcDbEntity
  8
1
  6
Continuous
 62
     7
100
AcDbCircle
 10
224.9747849999999
 20
140.648161
 30
0.0
 40
2.209999999999999
100
AcDbArc
 50
90.0
 51
180.0
  0
ARC
  5
6AD
330
1E
100
AcDbEntity
  8
1
  6
Continuous
 62
     7
100
AcDbCircle
 10
246.554785
 20
140.648161
 30
0.0
 40
2.209999999999999
100
AcDbArc
 50
0.0
 51
90.0
  0
LINE
  5
6AE
330
1E
100
AcDbEntity
  8
1
  6
Continuous
 62
     7
100
AcDbLine
 10
104.4320789999999
 20
91.76816099999999
 30
0.0
 11
103.8347979999999
 21
80.59279999999999
 31
0.0
  0
CIRCLE
  5
6AF
330
1E
100
AcDbEntity
  8
1
  6
Continuous
 62
     7
100
AcDbCircle
 10
105.7320789999999
 20
81.043161
 30
0.0
 40
0.975
  0
LINE
  5
6B0
330
1E
100
AcDbEntity
  8
1
  6
Continuous
 62
     7
100
AcDbLine
 10
113.532079
 20
91.76816099999999
 30
0.0
 11
107.629359
 21
80.59279999999999
 31
0.0
  0
ARC
  5
6B1
330
1E
100
AcDbEntity
  8
1
  6
Continuous
 62
     7
100
AcDbCircle
 10
105.7320789999999
 20
81.043161
 30
0.0
 40
3.25
100
AcDbArc
 50
122.078902
 51
26.642375
  0
ARC
  5
6B2
330
1E
100
AcDbEntity
  8
1
  6
Continuous
 62
     7
100
AcDbCircle
 10
105.7320789999999
 20
81.043161
 30
0.0
 40
6.174999999999999
100
AcDbArc
 50
104.573835
 51
44.354388
  0
ARC
  5
6B3
330
1E
100
AcDbEntity
  8
1
  6
Continuous
 62
     7
100
AcDbCircle
 10
105.7320789999999
 20
81.043161
 30
0.0
 40
7.474999999999999
100
AcDbArc
 50
101.432359
 51
47.527625
  0
ARC
  5
6B4
330
1E
100
AcDbEntity
  8
1
  6
Continuous
 62
     7
100
AcDbCircle
 10
105.7320789999999
 20
81.043161
 30
0.0
 40
8.125
100
AcDbArc
 50
100.250718
 51
48.72096800000001
  0
ARC
  5
6B5
330
1E
100
AcDbEntity
  8
1
  6
Continuous
 62
     7
100
AcDbCircle
 10
105.7320789999999
 20
81.043161
 30
0.0
 40
1.95
100
AcDbArc
 50
193.3532879999999
 51
346.6467219999999
  0
LINE
  5
6B6
330
1E
100
AcDbEntity
  8
1
  6
Continuous
 62
     7
100
AcDbLine
 10
43.735502
 20
80.64791300000001
 30
0.0
 11
43.735252
 21
79.09316099999999
 31
0.0
  0
LINE
  5
6B7
330
1E
100
AcDbEntity
  8
1
  6
Continuous
 62
     7
100
AcDbLine
 10
44.711876
 20
87.41586899999999
 30
0.0
 11
43.735502
 21
80.64791300000001
 31
0.0
  0
LINE
  5
6B8
330
1E
100
AcDbEntity
  8
1
  6
Continuous
 62
     7
100
AcDbLine
 10
37.62550499999999
 20
80.66694899999999
 30
0.0
 11
37.625252
 21
79.09316099999999
 31
0.0
  0
LINE
  5
6B9
330
1E
100
AcDbEntity
  8
1
  6
Continuous
 62
     7
100
AcDbLine
 10
36.651876
 20
87.41586899999999
 30
0.0
 11
37.62550499999999
 21
80.66694899999999
 31
0.0
  0
LINE
  5
6BA
330
1E
100
AcDbEntity
  8
1
  6
Continuous
 62
     7
100
AcDbLine
 10
44.711876
 20
87.41586899999999
 30
0.0
 11
44.711876
 21
91.76816099999999
 31
0.0
  0
LINE
  5
6BB
330
1E
100
AcDbEntity
  8
1
  6
Continuous
 62
     7
100
AcDbLine
 10
36.651876
 20
87.41586899999999
 30
0.0
 11
36.651876
 21
91.76816099999999
 31
0.0
  0
LINE
  5
6BC
330
1E
100
AcDbEntity
  8
1
  6
Continuous
 62
     7
100
AcDbLine
 10
38.145252
 20
79.09316099999999
 30
0.0
 11
37.30412
 21
79.09316099999999
 31
0.0
  0
LINE
  5
6BD
330
1E
100
AcDbEntity
  8
1
  6
Continuous
 62
     7
100
AcDbLine
 10
44.059574
 20
79.09316099999999
 30
0.0
 11
43.21525199999999
 21
79.09316099999999
 31
0.0
  0
LINE
  5
6BE
330
1E
100
AcDbEntity
  8
1
  6
Continuous
 62
     7
100
AcDbLine
 10
37.30412
 20
81.07379599999999
 30
0.0
 11
37.30412
 21
79.09316099999999
 31
0.0
  0
LINE
  5
6BF
330
1E
100
AcDbEntity
  8
1
  6
Continuous
 62
     7
100
AcDbLine
 10
44.059574
 20
81.073389
 30
0.0
 11
44.059574
 21
79.09316099999999
 31
0.0
  0
LINE
  5
6C0
330
1E
100
AcDbEntity
  8
1
  6
Continuous
 62
     7
100
AcDbLine
 10
45.23187599999999
 20
89.19945799999998
 30
0.0
 11
44.059574
 21
81.073389
 31
0.0
  0
LINE
  5
6C1
330
1E
100
AcDbEntity
  8
1
  6
Continuous
 62
     7
100
AcDbLine
 10
36.13187599999999
 20
89.19945799999998
 30
0.0
 11
37.30412
 21
81.07379599999999
 31
0.0
  0
LINE
  5
6C2
330
1E
100
AcDbEntity
  8
1
  6
Continuous
 62
     7
100
AcDbLine
 10
38.14675199999999
 20
88.424387
 30
0.0
 11
38.144389
 21
73.725001
 31
0.0
  0
LINE
  5
6C3
330
1E
100
AcDbEntity
  8
1
  6
Continuous
 62
     7
100
AcDbLine
 10
43.216752
 20
88.424387
 30
0.0
 11
43.214388
 21
73.72181600000001
 31
0.0
  0
ARC
  5
6C4
330
1E
100
AcDbEntity
  8
1
  6
Continuous
 62
     7
100
AcDbCircle
 10
40.681752
 20
77.485724
 30
0.0
 40
4.536656999999999
100
AcDbArc
 50
236.0284259999999
 51
303.9715739999999
  0
LINE
  5
6C5
330
1E
100
AcDbEntity
  8
1
  6
Continuous
 62
     7
100
AcDbLine
 10
49.716876
 20
141.298161
 30
0.0
 11
71.296876
 21
141.298161
 31
0.0
  0
LINE
  5
6C6
330
1E
100
AcDbEntity
  8
1
  6
Continuous
 62
     7
100
AcDbLine
 10
115.482079
 20
92.15816099999999
 30
0.0
 11
102.4820789999999
 21
92.15816099999999
 31
0.0
  0
LINE
  5
6C7
330
1E
100
AcDbEntity
  8
1
  6
Continuous
 62
     7
100
AcDbLine
 10
115.482079
 20
91.76816099999999
 30
0.0
 11
102.4820789999999
 21
91.76816099999999
 31
0.0
  0
LINE
  5
6C8
330
1E
100
AcDbEntity
  8
1
  6
Continuous
 62
     7
100
AcDbLine
 10
102.4820789999999
 20
91.76816099999999
 30
0.0
 11
102.4820789999999
 21
92.15816099999999
 31
0.0
  0
LINE
  5
6C9
330
1E
100
AcDbEntity
  8
1
  6
Continuous
 62
     7
100
AcDbLine
 10
102.4820789999999
 20
94.10816099999999
 30
0.0
 11
102.4820789999999
 21
92.15816099999999
 31
0.0
  0
LINE
  5
6CA
330
1E
100
AcDbEntity
  8
1
  6
Continuous
 62
     7
100
AcDbLine
 10
85.53187599999999
 20
89.19799499999999
 30
0.0
 11
85.53187599999999
 21
92.15816099999999
 31
0.0
  0
LINE
  5
6CB
330
1E
100
AcDbEntity
  8
1
  6
Continuous
 62
     7
100
AcDbLine
 10
115.482079
 20
91.76816099999999
 30
0.0
 11
115.482079
 21
92.15816099999999
 31
0.0
  0
LINE
  5
6CC
330
1E
100
AcDbEntity
  8
1
  6
Continuous
 62
     7
100
AcDbLine
 10
44.711876
 20
91.76816099999999
 30
0.0
 11
36.651876
 21
91.76816099999999
 31
0.0
  0
LINE
  5
6CD
330
1E
100
AcDbEntity
  8
1
  6
Continuous
 62
     7
100
AcDbLine
 10
45.23187599999999
 20
89.19799499999999
 30
0.0
 11
45.23187599999999
 21
92.15816099999999
 31
0.0
  0
LINE
  5
6CE
330
1E
100
AcDbEntity
  8
1
  6
Continuous
 62
     7
100
AcDbLine
 10
70.808865
 20
94.10816099999999
 30
0.0
 11
67.33187599999999
 21
94.10816099999999
 31
0.0
  0
LINE
  5
6CF
330
1E
100
AcDbEntity
  8
1
  6
Continuous
 62
     7
100
AcDbLine
 10
70.808865
 20
92.15816099999999
 30
0.0
 11
36.13187599999999
 21
92.15816099999999
 31
0.0
  0
LINE
  5
6D0
330
1E
100
AcDbEntity
  8
1
  6
Continuous
 62
     7
100
AcDbLine
 10
76.431876
 20
89.19945799999998
 30
0.0
 11
76.431876
 21
92.15816099999999
 31
0.0
  0
LINE
  5
6D1
330
1E
100
AcDbEntity
  8
1
  6
Continuous
 62
     7
100
AcDbLine
 10
84.03550200000001
 20
80.64791300000001
 30
0.0
 11
84.035252
 21
79.09316099999999
 31
0.0
  0
LINE
  5
6D2
330
1E
100
AcDbEntity
  8
1
  6
Continuous
 62
     7
100
AcDbLine
 10
85.01187599999999
 20
87.41586899999999
 30
0.0
 11
84.03550200000001
 21
80.64791300000001
 31
0.0
  0
LINE
  5
6D3
330
1E
100
AcDbEntity
  8
1
  6
Continuous
 62
     7
100
AcDbLine
 10
85.01187599999999
 20
87.41586899999999
 30
0.0
 11
85.01187599999999
 21
91.76816099999999
 31
0.0
  0
LINE
  5
6D4
330
1E
100
AcDbEntity
  8
1
  6
Continuous
 62
     7
100
AcDbLine
 10
84.35957399999999
 20
79.09316099999999
 30
0.0
 11
83.51525200000001
 21
79.09316099999999
 31
0.0
  0
LINE
  5
6D5
330
1E
100
AcDbEntity
  8
1
  6
Continuous
 62
     7
100
AcDbLine
 10
84.35957399999999
 20
81.073389
 30
0.0
 11
84.35957399999999
 21
79.09316099999999
 31
0.0
  0
LINE
  5
6D6
330
1E
100
AcDbEntity
  8
1
  6
Continuous
 62
     7
100
AcDbLine
 10
85.53187599999999
 20
89.19945799999998
 30
0.0
 11
84.35957399999999
 21
81.073389
 31
0.0
  0
LINE
  5
6D7
330
1E
100
AcDbEntity
  8
1
  6
Continuous
 62
     7
100
AcDbLine
 10
83.516752
 20
88.424387
 30
0.0
 11
83.514388
 21
73.72181600000001
 31
0.0
  0
LINE
  5
6D8
330
1E
100
AcDbEntity
  8
1
  6
Continuous
 62
     7
100
AcDbLine
 10
49.716876
 20
142.858161
 30
0.0
 11
71.296876
 21
142.858161
 31
0.0
  0
ARC
  5
6D9
330
1E
100
AcDbEntity
  8
1
  6
Continuous
 62
     7
100
AcDbCircle
 10
128.2257389999999
 20
117.1665009999999
 30
0.0
 40
6.002835
100
AcDbArc
 50
183.103573
 51
226.3827649999999
  0
ARC
  5
6DA
330
1E
100
AcDbEntity
  8
1
  6
Continuous
 62
     7
100
AcDbCircle
 10
128.2257389999999
 20
117.1665009999999
 30
0.0
 40
6.002835
100
AcDbArc
 50
135.0
 51
176.8964269999999
  0
ARC
  5
6DB
330
1E
100
AcDbEntity
  8
1
  6
Continuous
 62
     7
100
AcDbCircle
 10
121.475718
 20
116.9715009999999
 30
0.0
 40
0.13
100
AcDbArc
 50
180.0
 51
270.0
  0
LINE
  5
6DC
330
1E
100
AcDbEntity
  8
1
  6
Continuous
 62
     7
100
AcDbLine
 10
121.475718
 20
116.8415009999999
 30
0.0
 11
124.3393039999999
 21
116.8415009999999
 31
0.0
  0
LINE
  5
6DD
330
1E
100
AcDbEntity
  8
1
  6
Continuous
 62
     7
100
AcDbLine
 10
121.345718
 20
117.361501
 30
0.0
 11
121.345718
 21
116.9715009999999
 31
0.0
  0
ARC
  5
6DE
330
1E
100
AcDbEntity
  8
1
  6
Continuous
 62
     7
100
AcDbCircle
 10
121.475718
 20
117.361501
 30
0.0
 40
0.13
100
AcDbArc
 50
90.0
 51
180.0
  0
LINE
  5
6DF
330
1E
100
AcDbEntity
  8
1
  6
Continuous
 62
     7
100
AcDbLine
 10
121.475718
 20
117.491501
 30
0.0
 11
124.3393039999999
 21
117.491501
 31
0.0
  0
LINE
  5
6E0
330
1E
100
AcDbEntity
  8
1
  6
Continuous
 62
     7
100
AcDbLine
 10
124.08476
 20
112.8206629999999
 30
0.0
 11
122.270926
 21
111.006829
 31
0.0
  0
LINE
  5
6E1
330
1E
100
AcDbEntity
  8
1
  6
Continuous
 62
     7
100
AcDbLine
 10
123.9810939999999
 20
121.411146
 30
0.0
 11
123.479851
 21
121.9123889999999
 31
0.0
  0
ARC
  5
6E2
330
1E
100
AcDbEntity
  8
1
  6
Continuous
 62
     7
100
AcDbCircle
 10
128.2257389999999
 20
115.8665009999999
 30
0.0
 40
7.686105
100
AcDbArc
 50
128.1311279999999
 51
219.21759
  0
CIRCLE
  5
6E3
330
1E
100
AcDbEntity
  8
1
  6
Continuous
 62
     7
100
AcDbCircle
 10
128.2257389999999
 20
117.1665009999999
 30
0.0
 40
3.9
  0
CIRCLE
  5
6E4
330
1E
100
AcDbEntity
  8
1
  6
Continuous
 62
     7
100
AcDbCircle
 10
128.2257389999999
 20
117.1665009999999
 30
0.0
 40
1.3
  0
CIRCLE
  5
6E5
330
1E
100
AcDbEntity
  8
1
  6
Continuous
 62
     7
100
AcDbCircle
 10
128.2257389999999
 20
117.1665009999999
 30
0.0
 40
0.144857
  0
CIRCLE
  5
6E6
330
1E
100
AcDbEntity
  8
1
  6
Continuous
 62
     7
100
AcDbCircle
 10
128.2257389999999
 20
117.1665009999999
 30
0.0
 40
3.788571
  0
LINE
  5
6E7
330
1E
100
AcDbEntity
  8
1
  6
Continuous
 62
     7
100
AcDbLine
 10
79.869037
 20
108.79349
 30
0.0
 11
79.869037
 21
106.8434899999999
 31
0.0
  0
LINE
  5
6E8
330
1E
100
AcDbEntity
  8
1
  6
Continuous
 62
     7
100
AcDbLine
 10
120.032079
 20
133.7581609999999
 30
0.0
 11
120.032079
 21
137.658161
 31
0.0
  0
LINE
  5
6E9
330
1E
100
AcDbEntity
  8
1
  6
Continuous
 62
     7
100
AcDbLine
 10
84.11976199999999
 20
107.1034899999999
 30
0.0
 11
84.11976199999999
 21
108.5334899999999
 31
0.0
  0
LINE
  5
6EA
330
1E
100
AcDbEntity
  8
1
  6
Continuous
 62
     7
100
AcDbLine
 10
83.053491
 20
106.8434899999999
 30
0.0
 11
83.053491
 21
108.79349
 31
0.0
  0
ARC
  5
6EB
330
1E
100
AcDbEntity
  8
1
  6
Continuous
 62
     7
100
AcDbCircle
 10
83.85976199999999
 20
107.1034899999999
 30
0.0
 40
0.26
100
AcDbArc
 50
270.0
 51
0.0
  0
LINE
  5
6EC
330
1E
100
AcDbEntity
  8
1
  6
Continuous
 62
     7
100
AcDbLine
 10
66.031876
 20
97.358161
 30
0.0
 11
55.631876
 21
97.358161
 31
0.0
  0
ARC
  5
6ED
330
1E
100
AcDbEntity
  8
1
  6
Continuous
 62
     7
100
AcDbCircle
 10
71.296876
 20
140.648161
 30
0.0
 40
0.65
100
AcDbArc
 50
0.0
 51
90.0
  0
LINE
  5
6EE
330
1E
100
AcDbEntity
  8
1
  6
Continuous
 62
     7
100
AcDbLine
 10
180.4820789999999
 20
91.76816099999999
 30
0.0
 11
180.4820789999999
 21
92.15816099999999
 31
0.0
  0
CIRCLE
  5
6EF
330
1E
100
AcDbEntity
  8
1
  6
Continuous
 62
     7
100
AcDbCircle
 10
173.982079
 20
81.043161
 30
0.0
 40
0.975
  0
ARC
  5
6F0
330
1E
100
AcDbEntity
  8
1
  6
Continuous
 62
     7
100
AcDbCircle
 10
173.982079
 20
81.043161
 30
0.0
 40
1.95
100
AcDbArc
 50
193.3532879999999
 51
346.6467219999999
  0
ARC
  5
6F1
330
1E
100
AcDbEntity
  8
1
  6
Continuous
 62
     7
100
AcDbCircle
 10
173.982079
 20
81.043161
 30
0.0
 40
7.474999999999999
100
AcDbArc
 50
118.474947
 51
61.52505299999999
  0
LINE
  5
6F2
330
1E
100
AcDbEntity
  8
1
  6
Continuous
 62
     7
100
AcDbLine
 10
180.4820789999999
 20
91.76816099999999
 30
0.0
 11
167.482079
 21
91.76816099999999
 31
0.0
  0
LINE
  5
6F3
330
1E
100
AcDbEntity
  8
1
  6
Continuous
 62
     7
100
AcDbLine
 10
180.4820789999999
 20
92.15816099999999
 30
0.0
 11
167.482079
 21
92.15816099999999
 31
0.0
  0
LINE
  5
6F4
330
1E
100
AcDbEntity
  8
1
  6
Continuous
 62
     7
100
AcDbLine
 10
167.482079
 20
91.76816099999999
 30
0.0
 11
167.482079
 21
92.15816099999999
 31
0.0
  0
LINE
  5
6F5
330
1E
100
AcDbEntity
  8
1
  6
Continuous
 62
     7
100
AcDbLine
 10
169.432079
 20
91.76816099999999
 30
0.0
 11
172.084798
 21
80.59279999999999
 31
0.0
  0
LINE
  5
6F6
330
1E
100
AcDbEntity
  8
1
  6
Continuous
 62
     7
100
AcDbLine
 10
178.532079
 20
91.76816099999999
 30
0.0
 11
175.879359
 21
80.59279999999999
 31
0.0
  0
ARC
  5
6F7
330
1E
100
AcDbEntity
  8
1
  6
Continuous
 62
     7
100
AcDbCircle
 10
173.982079
 20
81.043161
 30
0.0
 40
8.125
100
AcDbArc
 50
117.2398219999999
 51
62.760178
  0
ARC
  5
6F8
330
1E
100
AcDbEntity
  8
1
  6
Continuous
 62
     7
100
AcDbCircle
 10
173.982079
 20
81.043161
 30
0.0
 40
6.174999999999999
100
AcDbArc
 50
121.761762
 51
58.23823800000001
  0
ARC
  5
6F9
330
1E
100
AcDbEntity
  8
1
  6
Continuous
 62
     7
100
AcDbCircle
 10
173.982079
 20
81.043161
 30
0.0
 40
3.25
100
AcDbArc
 50
140.22318
 51
39.77682
  0
LINE
  5
6FA
330
1E
100
AcDbEntity
  8
1
  6
Continuous
 62
     7
100
AcDbLine
 10
252.537087
 20
81.073389
 30
0.0
 11
252.537087
 21
79.09316099999999
 31
0.0
  0
LINE
  5
6FB
330
1E
100
AcDbEntity
  8
1
  6
Continuous
 62
     7
100
AcDbLine
 10
251.364785
 20
89.19945799999998
 30
0.0
 11
252.537087
 21
81.073389
 31
0.0
  0
LINE
  5
6FC
330
1E
100
AcDbEntity
  8
1
  6
Continuous
 62
     7
100
AcDbLine
 10
260.464785
 20
89.19945799999998
 30
0.0
 11
259.2925419999999
 21
81.07379599999999
 31
0.0
  0
LINE
  5
6FD
330
1E
100
AcDbEntity
  8
1
  6
Continuous
 62
     7
100
AcDbLine
 10
212.237087
 20
81.073389
 30
0.0
 11
212.237087
 21
79.09316099999999
 31
0.0
  0
LINE
  5
6FE
330
1E
100
AcDbEntity
  8
1
  6
Continuous
 62
     7
100
AcDbLine
 10
211.0647849999999
 20
89.19945799999998
 30
0.0
 11
212.237087
 21
81.073389
 31
0.0
  0
LINE
  5
6FF
330
1E
100
AcDbEntity
  8
1
  6
Continuous
 62
     7
100
AcDbLine
 10
220.164785
 20
89.19945799999998
 30
0.0
 11
218.9925419999999
 21
81.07379599999999
 31
0.0
  0
LINE
  5
700
330
1E
100
AcDbEntity
  8
1
  6
Continuous
 62
     7
100
AcDbLine
 10
218.1499099999999
 20
88.424387
 30
0.0
 11
218.152273
 21
73.725001
 31
0.0
  0
LINE
  5
701
330
1E
100
AcDbEntity
  8
1
  6
Continuous
 62
     7
100
AcDbLine
 10
213.0799099999999
 20
88.424387
 30
0.0
 11
213.0822729999999
 21
73.72181600000001
 31
0.0
  0
ARC
  5
702
330
1E
100
AcDbEntity
  8
1
  6
Continuous
 62
     7
100
AcDbCircle
 10
215.6149099999999
 20
77.485724
 30
0.0
 40
4.536656999999999
100
AcDbArc
 50
236.0284259999999
 51
303.9715739999999
  0
ARC
  5
703
330
1E
100
AcDbEntity
  8
1
  6
Continuous
 62
     7
100
AcDbCircle
 10
215.6149099999999
 20
84.66207
 30
0.0
 40
4.536656999999999
100
AcDbArc
 50
56.02842599999999
 51
123.971574
  0
LINE
  5
704
330
1E
100
AcDbEntity
  8
1
  6
Continuous
 62
     7
100
AcDbLine
 10
220.164785
 20
89.19945799999998
 30
0.0
 11
220.164785
 21
92.15816099999999
 31
0.0
  0
LINE
  5
705
330
1E
100
AcDbEntity
  8
1
  6
Continuous
 62
     7
100
AcDbLine
 10
211.584785
 20
91.76816099999999
 30
0.0
 11
219.644785
 21
91.76816099999999
 31
0.0
  0
LINE
  5
706
330
1E
100
AcDbEntity
  8
1
  6
Continuous
 62
     7
100
AcDbLine
 10
211.0647849999999
 20
89.19799499999999
 30
0.0
 11
211.0647849999999
 21
92.15816099999999
 31
0.0
  0
LINE
  5
707
330
1E
100
AcDbEntity
  8
1
  6
Continuous
 62
     7
100
AcDbLine
 10
252.86116
 20
80.64791300000001
 30
0.0
 11
252.8614099999999
 21
79.09316099999999
 31
0.0
  0
LINE
  5
708
330
1E
100
AcDbEntity
  8
1
  6
Continuous
 62
     7
100
AcDbLine
 10
251.884785
 20
87.41586899999999
 30
0.0
 11
252.86116
 21
80.64791300000001
 31
0.0
  0
LINE
  5
709
330
1E
100
AcDbEntity
  8
1
  6
Continuous
 62
     7
100
AcDbLine
 10
211.0647849999999
 20
94.10816099999999
 30
0.0
 11
260.464785
 21
94.10816099999999
 31
0.0
  0
LINE
  5
70A
330
1E
100
AcDbEntity
  8
1
  6
Continuous
 62
     7
100
AcDbLine
 10
211.0647849999999
 20
92.15816099999999
 30
0.0
 11
260.464785
 21
92.15816099999999
 31
0.0
  0
LINE
  5
70B
330
1E
100
AcDbEntity
  8
1
  6
Continuous
 62
     7
100
AcDbLine
 10
190.882079
 20
126.933161
 30
0.0
 11
190.882079
 21
118.808161
 31
0.0
  0
LINE
  5
70C
330
1E
100
AcDbEntity
  8
1
  6
Continuous
 62
     7
100
AcDbLine
 10
190.882079
 20
110.683161
 30
0.0
 11
190.882079
 21
118.808161
 31
0.0
  0
LINE
  5
70D
330
1E
100
AcDbEntity
  8
1
  6
Continuous
 62
     7
100
AcDbLine
 10
190.882079
 20
110.683161
 30
0.0
 11
180.4820789999999
 21
110.683161
 31
0.0
  0
LINE
  5
70E
330
1E
100
AcDbEntity
  8
1
  6
Continuous
 62
     7
100
AcDbLine
 10
190.882079
 20
126.933161
 30
0.0
 11
180.4820789999999
 21
126.933161
 31
0.0
  0
LINE
  5
70F
330
1E
100
AcDbEntity
  8
1
  6
Continuous
 62
     7
100
AcDbLine
 10
258.4499099999999
 20
88.424387
 30
0.0
 11
258.4522729999999
 21
73.725001
 31
0.0
  0
LINE
  5
710
330
1E
100
AcDbEntity
  8
1
  6
Continuous
 62
     7
100
AcDbLine
 10
253.3799099999999
 20
88.424387
 30
0.0
 11
253.382273
 21
73.72181600000001
 31
0.0
  0
ARC
  5
711
330
1E
100
AcDbEntity
  8
1
  6
Continuous
 62
     7
100
AcDbCircle
 10
255.91491
 20
77.485724
 30
0.0
 40
4.536656999999999
100
AcDbArc
 50
236.0284259999999
 51
303.9715739999999
  0
ARC
  5
712
330
1E
100
AcDbEntity
  8
1
  6
Continuous
 62
     7
100
AcDbCircle
 10
255.91491
 20
84.66207
 30
0.0
 40
4.536656999999999
100
AcDbArc
 50
56.02842599999999
 51
123.971574
  0
LINE
  5
713
330
1E
100
AcDbEntity
  8
1
  6
Continuous
 62
     7
100
AcDbLine
 10
260.464785
 20
89.19945799999998
 30
0.0
 11
260.464785
 21
92.15816099999999
 31
0.0
  0
LINE
  5
714
330
1E
100
AcDbEntity
  8
1
  6
Continuous
 62
     7
100
AcDbLine
 10
251.884785
 20
91.76816099999999
 30
0.0
 11
259.944785
 21
91.76816099999999
 31
0.0
  0
LINE
  5
715
330
1E
100
AcDbEntity
  8
1
  6
Continuous
 62
     7
100
AcDbLine
 10
251.364785
 20
89.19799499999999
 30
0.0
 11
251.364785
 21
92.15816099999999
 31
0.0
  0
LINE
  5
716
330
1E
100
AcDbEntity
  8
1
  6
Continuous
 62
     7
100
AcDbLine
 10
219.644785
 20
87.41586899999999
 30
0.0
 11
218.6711569999999
 21
80.66694899999999
 31
0.0
  0
LINE
  5
717
330
1E
100
AcDbEntity
  8
1
  6
Continuous
 62
     7
100
AcDbLine
 10
211.584785
 20
87.41586899999999
 30
0.0
 11
211.584785
 21
91.76816099999999
 31
0.0
  0
LINE
  5
718
330
1E
100
AcDbEntity
  8
1
  6
Continuous
 62
     7
100
AcDbLine
 10
219.644785
 20
87.41586899999999
 30
0.0
 11
219.644785
 21
91.76816099999999
 31
0.0
  0
LINE
  5
719
330
1E
100
AcDbEntity
  8
1
  6
Continuous
 62
     7
100
AcDbLine
 10
218.15141
 20
79.09316099999999
 30
0.0
 11
218.9925419999999
 21
79.09316099999999
 31
0.0
  0
LINE
  5
71A
330
1E
100
AcDbEntity
  8
1
  6
Continuous
 62
     7
100
AcDbLine
 10
212.237087
 20
79.09316099999999
 30
0.0
 11
213.08141
 21
79.09316099999999
 31
0.0
  0
LINE
  5
71B
330
1E
100
AcDbEntity
  8
1
  6
Continuous
 62
     7
100
AcDbLine
 10
218.9925419999999
 20
81.07379599999999
 30
0.0
 11
218.9925419999999
 21
79.09316099999999
 31
0.0
  0
ARC
  5
71C
330
1E
100
AcDbEntity
  8
1
  6
Continuous
 62
     7
100
AcDbCircle
 10
257.8647849999999
 20
135.058161
 30
0.0
 40
2.6
100
AcDbArc
 50
0.0
 51
90.0
  0
ARC
  5
71D
330
1E
100
AcDbEntity
  8
1
  6
Continuous
 62
     7
100
AcDbCircle
 10
213.664785
 20
135.058161
 30
0.0
 40
2.6
100
AcDbArc
 50
90.0
 51
180.0
  0
LINE
  5
71E
330
1E
100
AcDbEntity
  8
1
  6
Continuous
 62
     7
100
AcDbLine
 10
224.9747849999999
 20
142.858161
 30
0.0
 11
246.554785
 21
142.858161
 31
0.0
  0
LINE
  5
71F
330
1E
100
AcDbEntity
  8
1
  6
Continuous
 62
     7
100
AcDbLine
 10
258.9711569999999
 20
80.66694899999999
 30
0.0
 11
258.97141
 21
79.09316099999999
 31
0.0
  0
LINE
  5
720
330
1E
100
AcDbEntity
  8
1
  6
Continuous
 62
     7
100
AcDbLine
 10
259.944785
 20
87.41586899999999
 30
0.0
 11
258.9711569999999
 21
80.66694899999999
 31
0.0
  0
LINE
  5
721
330
1E
100
AcDbEntity
  8
1
  6
Continuous
 62
     7
100
AcDbLine
 10
251.884785
 20
87.41586899999999
 30
0.0
 11
251.884785
 21
91.76816099999999
 31
0.0
  0
LINE
  5
722
330
1E
100
AcDbEntity
  8
1
  6
Continuous
 62
     7
100
AcDbLine
 10
259.944785
 20
87.41586899999999
 30
0.0
 11
259.944785
 21
91.76816099999999
 31
0.0
  0
LINE
  5
723
330
1E
100
AcDbEntity
  8
1
  6
Continuous
 62
     7
100
AcDbLine
 10
258.45141
 20
79.09316099999999
 30
0.0
 11
259.2925419999999
 21
79.09316099999999
 31
0.0
  0
LINE
  5
724
330
1E
100
AcDbEntity
  8
1
  6
Continuous
 62
     7
100
AcDbLine
 10
252.537087
 20
79.09316099999999
 30
0.0
 11
253.38141
 21
79.09316099999999
 31
0.0
  0
LINE
  5
725
330
1E
100
AcDbEntity
  8
1
  6
Continuous
 62
     7
100
AcDbLine
 10
259.2925419999999
 20
81.07379599999999
 30
0.0
 11
259.2925419999999
 21
79.09316099999999
 31
0.0
  0
LINE
  5
726
330
1E
100
AcDbEntity
  8
1
  6
Continuous
 62
     7
100
AcDbLine
 10
212.56116
 20
80.64791300000001
 30
0.0
 11
212.56141
 21
79.09316099999999
 31
0.0
  0
LINE
  5
727
330
1E
100
AcDbEntity
  8
1
  6
Continuous
 62
     7
100
AcDbLine
 10
211.584785
 20
87.41586899999999
 30
0.0
 11
212.56116
 21
80.64791300000001
 31
0.0
  0
LINE
  5
728
330
1E
100
AcDbEntity
  8
1
  6
Continuous
 62
     7
100
AcDbLine
 10
218.6711569999999
 20
80.66694899999999
 30
0.0
 11
218.67141
 21
79.09316099999999
 31
0.0
  0
LINE
  5
729
330
1E
100
AcDbEntity
  8
1
  6
Continuous
 62
     7
100
AcDbLine
 10
70.178876
 20
131.7302639999999
 30
0.0
 11
50.834876
 21
131.7302639999999
 31
0.0
  0
LINE
  5
72A
330
1E
100
AcDbEntity
  8
1
  6
Continuous
 62
     7
100
AcDbLine
 10
50.834876
 20
134.833661
 30
0.0
 11
70.178876
 21
134.833661
 31
0.0
  0
ARC
  5
72B
330
1E
100
AcDbEntity
  8
1
  6
Continuous
 62
     7
100
AcDbCircle
 10
51.458876
 20
134.209661
 30
0.0
 40
0.312
100
AcDbArc
 50
90.0
 51
180.0
  0
LINE
  5
72C
330
1E
100
AcDbEntity
  8
1
  6
Continuous
 62
     7
100
AcDbLine
 10
50.834876
 20
131.7302639999999
 30
0.0
 11
50.834876
 21
134.833661
 31
0.0
  0
LINE
  5
72D
330
1E
100
AcDbEntity
  8
1
  6
Continuous
 62
     7
100
AcDbLine
 10
51.14687599999999
 20
132.354264
 30
0.0
 11
51.14687599999999
 21
134.209661
 31
0.0
  0
ARC
  5
72E
330
1E
100
AcDbEntity
  8
1
  6
Continuous
 62
     7
100
AcDbCircle
 10
51.458876
 20
132.354264
 30
0.0
 40
0.312
100
AcDbArc
 50
180.0
 51
270.0
  0
LINE
  5
72F
330
1E
100
AcDbEntity
  8
1
  6
Continuous
 62
     7
100
AcDbLine
 10
70.178876
 20
134.833661
 30
0.0
 11
70.178876
 21
131.7302639999999
 31
0.0
  0
ARC
  5
730
330
1E
100
AcDbEntity
  8
1
  6
Continuous
 62
     7
100
AcDbCircle
 10
69.55487600000001
 20
132.354264
 30
0.0
 40
0.312
100
AcDbArc
 50
270.0
 51
0.0
  0
LINE
  5
731
330
1E
100
AcDbEntity
  8
1
  6
Continuous
 62
     7
100
AcDbLine
 10
69.866876
 20
134.209661
 30
0.0
 11
69.866876
 21
132.354264
 31
0.0
  0
ARC
  5
732
330
1E
100
AcDbEntity
  8
1
  6
Continuous
 62
     7
100
AcDbCircle
 10
69.55487600000001
 20
134.209661
 30
0.0
 40
0.312
100
AcDbArc
 50
0.0
 51
90.0
  0
ARC
  5
733
330
1E
100
AcDbEntity
  8
1
  6
Continuous
 62
     7
100
AcDbCircle
 10
49.716876
 20
140.648161
 30
0.0
 40
2.209999999999999
100
AcDbArc
 50
90.0
 51
180.0
  0
LINE
  5
734
330
1E
100
AcDbEntity
  8
1
  6
Continuous
 62
     7
100
AcDbLine
 10
222.764785
 20
137.658161
 30
0.0
 11
222.764785
 21
140.648161
 31
0.0
  0
ARC
  5
735
330
1E
100
AcDbEntity
  8
1
  6
Continuous
 62
     7
100
AcDbCircle
 10
246.554785
 20
140.648161
 30
0.0
 40
0.65
100
AcDbArc
 50
0.0
 51
90.0
  0
LINE
  5
736
330
1E
100
AcDbEntity
  8
1
  6
Continuous
 62
     7
100
AcDbLine
 10
247.204785
 20
137.658161
 30
0.0
 11
247.204785
 21
140.648161
 31
0.0
  0
LINE
  5
737
330
1E
100
AcDbEntity
  8
1
  6
Continuous
 62
     7
100
AcDbLine
 10
224.9747849999999
 20
141.298161
 30
0.0
 11
246.554785
 21
141.298161
 31
0.0
  0
ARC
  5
738
330
1E
100
AcDbEntity
  8
1
  6
Continuous
 62
     7
100
AcDbCircle
 10
224.9747849999999
 20
140.648161
 30
0.0
 40
0.65
100
AcDbArc
 50
90.0
 51
180.0
  0
LINE
  5
739
330
1E
100
AcDbEntity
  8
1
  6
Continuous
 62
     7
100
AcDbLine
 10
224.324785
 20
137.658161
 30
0.0
 11
224.324785
 21
140.648161
 31
0.0
  0
LINE
  5
73A
330
1E
100
AcDbEntity
  8
1
  6
Continuous
 62
     7
100
AcDbLine
 10
248.764785
 20
137.658161
 30
0.0
 11
248.764785
 21
140.648161
 31
0.0
  0
CIRCLE
  5
73B
330
1E
100
AcDbEntity
  8
1
  6
Continuous
 62
     7
100
AcDbCircle
 10
235.764785
 20
118.808161
 30
0.0
 40
8.775
  0
CIRCLE
  5
73C
330
1E
100
AcDbEntity
  8
1
  6
Continuous
 62
     7
100
AcDbCircle
 10
235.764785
 20
118.808161
 30
0.0
 40
8.125
  0
LINE
  5
73D
330
1E
100
AcDbEntity
  8
1
  6
Continuous
 62
     7
100
AcDbLine
 10
257.8647849999999
 20
137.658161
 30
0.0
 11
213.664785
 21
137.658161
 31
0.0
  0
ARC
  5
73E
330
1E
100
AcDbEntity
  8
1
  6
Continuous
 62
     7
100
AcDbCircle
 10
38.73187599999999
 20
135.058161
 30
0.0
 40
2.6
100
AcDbArc
 50
90.0
 51
180.0
  0
LINE
  5
73F
330
1E
100
AcDbEntity
  8
1
  6
Continuous
 62
     7
100
AcDbLine
 10
47.506876
 20
137.658161
 30
0.0
 11
47.506876
 21
140.648161
 31
0.0
  0
ARC
  5
740
330
1E
100
AcDbEntity
  8
1
  6
Continuous
 62
     7
100
AcDbCircle
 10
49.716876
 20
140.648161
 30
0.0
 40
0.65
100
AcDbArc
 50
90.0
 51
180.0
  0
LINE
  5
741
330
1E
100
AcDbEntity
  8
1
  6
Continuous
 62
     7
100
AcDbLine
 10
49.066876
 20
137.658161
 30
0.0
 11
49.066876
 21
140.648161
 31
0.0
  0
LINE
  5
742
330
1E
100
AcDbEntity
  8
1
  6
Continuous
 62
     7
100
AcDbLine
 10
39.381876
 20
137.658161
 30
0.0
 11
39.381876
 21
137.554161
 31
0.0
  0
LINE
  5
743
330
1E
100
AcDbEntity
  8
1
  6
Continuous
 62
     7
100
AcDbLine
 10
36.235876
 20
134.408161
 30
0.0
 11
36.13187599999999
 21
134.408161
 31
0.0
  0
LINE
  5
744
330
1E
100
AcDbEntity
  8
1
  6
Continuous
 62
     7
100
AcDbLine
 10
54.006854
 20
127.583159
 30
0.0
 11
59.85685400000001
 21
127.583159
 31
0.0
  0
LINE
  5
745
330
1E
100
AcDbEntity
  8
1
  6
Continuous
 62
     7
100
AcDbLine
 10
59.85685400000001
 20
123.6831589999999
 30
0.0
 11
54.006854
 21
123.6831589999999
 31
0.0
  0
LINE
  5
746
330
1E
100
AcDbEntity
  8
1
  6
Continuous
 62
     7
100
AcDbLine
 10
55.22150899999999
 20
124.853159
 30
0.0
 11
59.381509
 21
124.853159
 31
0.0
  0
LINE
  5
747
330
1E
100
AcDbEntity
  8
1
  6
Continuous
 62
     7
100
AcDbLine
 10
55.22150899999999
 20
126.673159
 30
0.0
 11
55.22150899999999
 21
124.853159
 31
0.0
  0
LINE
  5
748
330
1E
100
AcDbEntity
  8
1
  6
Continuous
 62
     7
100
AcDbLine
 10
56.26150899999999
 20
126.673159
 30
0.0
 11
56.26150899999999
 21
124.853159
 31
0.0
  0
LINE
  5
749
330
1E
100
AcDbEntity
  8
1
  6
Continuous
 62
     7
100
AcDbLine
 10
59.381509
 20
126.673159
 30
0.0
 11
59.381509
 21
124.853159
 31
0.0
  0
LINE
  5
74A
330
1E
100
AcDbEntity
  8
1
  6
Continuous
 62
     7
100
AcDbLine
 10
58.341509
 20
126.673159
 30
0.0
 11
58.341509
 21
124.853159
 31
0.0
  0
LINE
  5
74B
330
1E
100
AcDbEntity
  8
1
  6
Continuous
 62
     7
100
AcDbLine
 10
57.30150899999999
 20
126.673159
 30
0.0
 11
57.30150899999999
 21
124.853159
 31
0.0
  0
LINE
  5
74C
330
1E
100
AcDbEntity
  8
1
  6
Continuous
 62
     7
100
AcDbLine
 10
55.22150899999999
 20
126.673159
 30
0.0
 11
59.381509
 21
126.673159
 31
0.0
  0
LINE
  5
74D
330
1E
100
AcDbEntity
  8
1
  6
DASHDOT
 62
     7
100
AcDbLine
 10
44.95683099999999
 20
117.883113
 30
0.0
 11
45.094716
 21
118.020999
 31
0.0
  0
LINE
  5
74E
330
1E
100
AcDbEntity
  8
1
  6
DASHDOT
 62
     7
100
AcDbLine
 10
42.906928
 20
117.883113
 30
0.0
 11
42.76904199999999
 21
118.020999
 31
0.0
  0
CIRCLE
  5
74F
330
1E
100
AcDbEntity
  8
1
  6
Continuous
 62
     7
100
AcDbCircle
 10
43.931879
 20
123.358161
 30
0.0
 40
1.4495
  0
CIRCLE
  5
750
330
1E
100
AcDbEntity
  8
1
  6
Continuous
 62
     7
100
AcDbCircle
 10
43.931879
 20
123.358161
 30
0.0
 40
1.82
  0
CIRCLE
  5
751
330
1E
100
AcDbEntity
  8
1
  6
Continuous
 62
     7
100
AcDbCircle
 10
43.931879
 20
123.358161
 30
0.0
 40
1.3
  0
LINE
  5
752
330
1E
100
AcDbEntity
  8
1
  6
Continuous
 62
     7
100
AcDbLine
 10
51.458876
 20
134.521661
 30
0.0
 11
69.55487600000001
 21
134.521661
 31
0.0
  0
LINE
  5
753
330
1E
100
AcDbEntity
  8
1
  6
Continuous
 62
     7
100
AcDbLine
 10
69.55487600000001
 20
132.0422639999999
 30
0.0
 11
51.458876
 21
132.0422639999999
 31
0.0
  0
LINE
  5
754
330
1E
100
AcDbEntity
  8
1
  6
Continuous
 62
     7
100
AcDbLine
 10
77.08187599999999
 20
123.8781609999999
 30
0.0
 11
78.38187600000001
 21
123.8781609999999
 31
0.0
  0
LINE
  5
755
330
1E
100
AcDbEntity
  8
1
  6
Continuous
 62
     7
100
AcDbLine
 10
78.38187600000001
 20
125.308161
 30
0.0
 11
78.38187600000001
 21
123.8781609999999
 31
0.0
  0
LINE
  5
756
330
1E
100
AcDbEntity
  8
1
  6
Continuous
 62
     7
100
AcDbLine
 10
77.08187599999999
 20
125.308161
 30
0.0
 11
77.08187599999999
 21
123.8781609999999
 31
0.0
  0
LINE
  5
757
330
1E
100
AcDbEntity
  8
1
  6
Continuous
 62
     7
100
AcDbLine
 10
72.722364
 20
114.7885129999999
 30
0.0
 11
72.722364
 21
116.4936799999999
 31
0.0
  0
LINE
  5
758
330
1E
100
AcDbEntity
  8
1
  6
Continuous
 62
     7
100
AcDbLine
 10
71.946876
 20
137.658161
 30
0.0
 11
71.946876
 21
140.648161
 31
0.0
  0
LINE
  5
759
330
1E
100
AcDbEntity
  8
1
  6
Continuous
 62
     7
100
AcDbLine
 10
73.89687600000001
 20
122.188161
 30
0.0
 11
73.89687600000001
 21
127.128161
 31
0.0
  0
LINE
  5
75A
330
1E
100
AcDbEntity
  8
1
  6
Continuous
 62
     7
100
AcDbLine
 10
73.506876
 20
137.658161
 30
0.0
 11
73.506876
 21
140.648161
 31
0.0
  0
LINE
  5
75B
330
1E
100
AcDbEntity
  8
1
  6
Continuous
 62
     7
100
AcDbLine
 10
83.85976199999999
 20
108.79349
 30
0.0
 11
79.869037
 21
108.79349
 31
0.0
  0
LINE
  5
75C
330
1E
100
AcDbEntity
  8
1
  6
Continuous
 62
     7
100
AcDbLine
 10
72.722364
 20
116.4936799999999
 30
0.0
 11
83.39582699999999
 21
116.4936799999999
 31
0.0
  0
LINE
  5
75D
330
1E
100
AcDbEntity
  8
1
  6
Continuous
 62
     7
100
AcDbLine
 10
83.39582699999999
 20
114.7885129999999
 30
0.0
 11
72.722364
 21
114.7885129999999
 31
0.0
  0
LINE
  5
75E
330
1E
100
AcDbEntity
  8
1
  6
Continuous
 62
     7
100
AcDbLine
 10
81.631876
 20
137.658161
 30
0.0
 11
81.631876
 21
137.554161
 31
0.0
  0
LINE
  5
75F
330
1E
100
AcDbEntity
  8
1
  6
Continuous
 62
     7
100
AcDbLine
 10
73.89687600000001
 20
127.128161
 30
0.0
 11
81.56687600000001
 21
127.128161
 31
0.0
  0
LINE
  5
760
330
1E
100
AcDbEntity
  8
1
  6
Continuous
 62
     7
100
AcDbLine
 10
81.56687600000001
 20
122.188161
 30
0.0
 11
73.89687600000001
 21
122.188161
 31
0.0
  0
LINE
  5
761
330
1E
100
AcDbEntity
  8
1
  6
Continuous
 62
     7
100
AcDbLine
 10
81.56687600000001
 20
127.128161
 30
0.0
 11
81.56687600000001
 21
122.188161
 31
0.0
  0
LINE
  5
762
330
1E
100
AcDbEntity
  8
1
  6
DASHDOT
 62
     7
100
AcDbLine
 10
42.906928
 20
115.83321
 30
0.0
 11
42.76904199999999
 21
115.6953239999999
 31
0.0
  0
LINE
  5
763
330
1E
100
AcDbEntity
  8
1
  6
DASHDOT
 62
     7
100
AcDbLine
 10
44.95683099999999
 20
115.83321
 30
0.0
 11
45.094716
 21
115.6953239999999
 31
0.0
  0
CIRCLE
  5
764
330
1E
100
AcDbEntity
  8
1
  6
Continuous
 62
     7
100
AcDbCircle
 10
43.931879
 20
116.858161
 30
0.0
 40
1.82
  0
CIRCLE
  5
765
330
1E
100
AcDbEntity
  8
1
  6
Continuous
 62
     7
100
AcDbCircle
 10
43.931879
 20
116.858161
 30
0.0
 40
1.3
  0
CIRCLE
  5
766
330
1E
100
AcDbEntity
  8
1
  6
Continuous
 62
     7
100
AcDbCircle
 10
43.931879
 20
116.858161
 30
0.0
 40
1.4495
  0
LINE
  5
767
330
1E
100
AcDbEntity
  8
1
  6
Continuous
 62
     7
100
AcDbLine
 10
36.235876
 20
113.062161
 30
0.0
 11
36.235876
 21
134.408161
 31
0.0
  0
LINE
  5
768
330
1E
100
AcDbEntity
  8
1
  6
Continuous
 62
     7
100
AcDbLine
 10
59.85685400000001
 20
121.733159
 30
0.0
 11
54.006854
 21
121.733159
 31
0.0
  0
LINE
  5
769
330
1E
100
AcDbEntity
  8
1
  6
Continuous
 62
     7
100
AcDbLine
 10
54.006854
 20
121.733159
 30
0.0
 11
54.006854
 21
127.583159
 31
0.0
  0
LINE
  5
76A
330
1E
100
AcDbEntity
  8
1
  6
Continuous
 62
     7
100
AcDbLine
 10
59.85685400000001
 20
127.583159
 30
0.0
 11
59.85685400000001
 21
121.733159
 31
0.0
  0
CIRCLE
  5
76B
330
1E
100
AcDbEntity
  8
1
  6
Continuous
 62
     7
100
AcDbCircle
 10
83.58662700000001
 20
107.8184899999999
 30
0.0
 40
0.325
  0
ARC
  5
76C
330
1E
100
AcDbEntity
  8
1
  6
Continuous
 62
     7
100
AcDbCircle
 10
83.85976199999999
 20
108.5334899999999
 30
0.0
 40
0.26
100
AcDbArc
 50
0.0
 51
90.0
  0
LINE
  5
76D
330
1E
100
AcDbEntity
  8
1
  6
Continuous
 62
     7
100
AcDbLine
 10
86.441365
 20
118.683168
 30
0.0
 11
86.441365
 21
115.649834
 31
0.0
  0
LINE
  5
76E
330
1E
100
AcDbEntity
  8
1
  6
Continuous
 62
     7
100
AcDbLine
 10
87.377876
 20
118.683168
 30
0.0
 11
87.377876
 21
115.649834
 31
0.0
  0
LINE
  5
76F
330
1E
100
AcDbEntity
  8
1
  6
Continuous
 62
     7
100
AcDbLine
 10
86.07787599999999
 20
121.7165009999999
 30
0.0
 11
86.07787599999999
 21
112.616501
 31
0.0
  0
LINE
  5
770
330
1E
100
AcDbEntity
  8
1
  6
Continuous
 62
     7
100
AcDbLine
 10
85.427876
 20
134.408161
 30
0.0
 11
85.427876
 21
113.062161
 31
0.0
  0
LINE
  5
771
330
1E
100
AcDbEntity
  8
1
  6
Continuous
 62
     7
100
AcDbLine
 10
87.377876
 20
115.649834
 30
0.0
 11
86.441365
 21
115.649834
 31
0.0
  0
LINE
  5
772
330
1E
100
AcDbEntity
  8
1
  6
Continuous
 62
     7
100
AcDbLine
 10
86.441365
 20
115.649834
 30
0.0
 11
86.07787599999999
 21
115.864761
 31
0.0
  0
LINE
  5
773
330
1E
100
AcDbEntity
  8
1
  6
Continuous
 62
     7
100
AcDbLine
 10
86.07787599999999
 20
112.616501
 30
0.0
 11
85.53187599999999
 21
112.616501
 31
0.0
  0
LINE
  5
774
330
1E
100
AcDbEntity
  8
1
  6
Continuous
 62
     7
100
AcDbLine
 10
83.39582699999999
 20
116.4936799999999
 30
0.0
 11
83.39582699999999
 21
114.7885129999999
 31
0.0
  0
LINE
  5
775
330
1E
100
AcDbEntity
  8
1
  6
Continuous
 62
     7
100
AcDbLine
 10
87.377876
 20
118.683168
 30
0.0
 11
86.441365
 21
118.683168
 31
0.0
  0
LINE
  5
776
330
1E
100
AcDbEntity
  8
1
  6
Continuous
 62
     7
100
AcDbLine
 10
86.441365
 20
118.683168
 30
0.0
 11
86.07787599999999
 21
118.4682409999999
 31
0.0
  0
LINE
  5
777
330
1E
100
AcDbEntity
  8
1
  6
Continuous
 62
     7
100
AcDbLine
 10
86.07787599999999
 20
121.7165009999999
 30
0.0
 11
85.53187599999999
 21
121.7165009999999
 31
0.0
  0
LINE
  5
778
330
1E
100
AcDbEntity
  8
1
  6
Continuous
 62
     7
100
AcDbLine
 10
85.53187599999999
 20
134.408161
 30
0.0
 11
85.427876
 21
134.408161
 31
0.0
  0
ARC
  5
779
330
1E
100
AcDbEntity
  8
1
  6
Continuous
 62
     7
100
AcDbCircle
 10
82.93187600000001
 20
135.058161
 30
0.0
 40
2.6
100
AcDbArc
 50
0.0
 51
90.0
  0
LINE
  5
77A
330
1E
100
AcDbEntity
  8
1
  6
Continuous
 62
     7
100
AcDbLine
 10
76.431876
 20
123.618161
 30
0.0
 11
79.03187599999999
 21
123.618161
 31
0.0
  0
LINE
  5
77B
330
1E
100
AcDbEntity
  8
1
  6
Continuous
 62
     7
100
AcDbLine
 10
76.431876
 20
125.698161
 30
0.0
 11
79.03187599999999
 21
125.698161
 31
0.0
  0
LINE
  5
77C
330
1E
100
AcDbEntity
  8
1
  6
Continuous
 62
     7
100
AcDbLine
 10
79.03187599999999
 20
125.698161
 30
0.0
 11
79.03187599999999
 21
123.618161
 31
0.0
  0
LINE
  5
77D
330
1E
100
AcDbEntity
  8
1
  6
Continuous
 62
     7
100
AcDbLine
 10
76.431876
 20
125.698161
 30
0.0
 11
76.431876
 21
123.618161
 31
0.0
  0
LINE
  5
77E
330
1E
100
AcDbEntity
  8
1
  6
Continuous
 62
     7
100
AcDbLine
 10
77.08187599999999
 20
125.308161
 30
0.0
 11
78.38187600000001
 21
125.308161
 31
0.0
  0
LINE
  5
77F
330
1E
100
AcDbEntity
  8
1
  6
Continuous
 62
     7
100
AcDbLine
 10
77.08187599999999
 20
124.918161
 30
0.0
 11
78.38187600000001
 21
124.918161
 31
0.0
  0
LINE
  5
780
330
1E
100
AcDbEntity
  8
1
  6
Continuous
 62
     7
100
AcDbLine
 10
77.08187599999999
 20
124.138161
 30
0.0
 11
78.38187600000001
 21
124.138161
 31
0.0
  0
LINE
  5
781
330
1E
100
AcDbEntity
  8
1
  6
Continuous
 62
     7
100
AcDbLine
 10
85.53187599999999
 20
92.15816099999999
 30
0.0
 11
70.808865
 21
92.15816099999999
 31
0.0
  0
LINE
  5
782
330
1E
100
AcDbEntity
  8
1
  6
Continuous
 62
     7
100
AcDbLine
 10
85.53187599999999
 20
94.10816099999999
 30
0.0
 11
70.808865
 21
94.10816099999999
 31
0.0
  0
TEXT
  5
783
330
1E
100
AcDbEntity
  8
1
  6
Continuous
 62
     7
100
AcDbText
 10
53.57707399999999
 20
132.2633409999999
 30
0.0
 40
2.0
  1
Park-Jet
 41
0.5
 51
30.0
  7
KANJI
100
AcDbText
  0
TEXT
  5
784
330
1E
100
AcDbEntity
  8
1
  6
Continuous
 62
     7
100
AcDbText
 10
65.87780999999999
 20
132.823474
 30
0.0
 40
1.0
  1
PJ-10
 41
0.5
  7
KANJI
100
AcDbText
  0
TEXT
  5
785
330
1E
100
AcDbEntity
  8
1
  6
Continuous
 62
     7
100
AcDbText
 10
53.876957
 20
120.2698899999999
 30
0.0
 40
1.0
  1
熱風温度設定
 41
0.833333
  7
KANJI
100
AcDbText
  0
TEXT
  5
786
330
1E
100
AcDbEntity
  8
1
  6
Continuous
 62
     7
100
AcDbText
 10
76.18509499999999
 20
120.9947689999999
 30
0.0
 40
1.0
  1
主電源
 41
0.833333
  7
KANJI
100
AcDbText
  0
TEXT
  5
787
330
1E
100
AcDbEntity
  8
1
  6
Continuous
 62
     7
100
AcDbText
 10
72.911253
 20
115.0146479999999
 30
0.0
 40
1.0
  1
㈱パーカーコーポレーション
 41
0.666667
  7
KANJI
100
AcDbText
  0
TEXT
  5
788
330
1E
100
AcDbEntity
  8
1
  6
Continuous
 62
     7
100
AcDbText
 10
42.842022
 20
125.8156889999999
 30
0.0
 40
1.0
  1
運転
 41
0.833333
  7
KANJI
100
AcDbText
  0
TEXT
  5
789
330
1E
100
AcDbEntity
  8
1
  6
Continuous
 62
     7
100
AcDbText
 10
42.781769
 20
119.1878969999999
 30
0.0
 40
1.0
  1
停止
 41
0.833333
  7
KANJI
100
AcDbText
  0
LINE
  5
78A
330
1E
100
AcDbEntity
  8
1
  6
DASHDOT
 62
     7
100
AcDbLine
 10
178.3174679999999
 20
118.808161
 30
0.0
 11
195.1414169999999
 21
118.808161
 31
0.0
  0
LINE
  5
78B
330
1E
100
AcDbEntity
  8
1
  6
DASHDOT
 62
     7
100
AcDbLine
 10
224.135883
 20
118.808161
 30
0.0
 11
248.476916
 21
118.808161
 31
0.0
  0
LINE
  5
78C
330
1E
100
AcDbEntity
  8
1
  6
Continuous
 62
     7
100
AcDbLine
 10
192.755041
 20
118.808161
 30
0.0
 11
192.755041
 21
91.76816099999999
 31
0.0
  0
LINE
  5
78D
330
1E
100
AcDbEntity
  8
1
  6
Continuous
 62
     7
100
AcDbLine
 10
194.755041
 20
91.76816099999999
 30
0.0
 11
182.482079
 21
91.76816099999999
 31
0.0
  0
LINE
  5
78E
330
1E
100
AcDbEntity
  8
1
  6
Continuous
 62
     7
100
AcDbLine
 10
192.755041
 20
118.808161
 30
0.0
 11
193.531498
 21
115.9103839999999
 31
0.0
  0
LINE
  5
78F
330
1E
100
AcDbEntity
  8
1
  6
Continuous
 62
     7
100
AcDbLine
 10
192.755041
 20
118.808161
 30
0.0
 11
191.978584
 21
115.9103839999999
 31
0.0
  0
LINE
  5
790
330
1E
100
AcDbEntity
  8
1
  6
Continuous
 62
     7
100
AcDbLine
 10
192.755041
 20
91.76816099999999
 30
0.0
 11
191.978584
 21
94.66593899999999
 31
0.0
  0
LINE
  5
791
330
1E
100
AcDbEntity
  8
1
  6
Continuous
 62
     7
100
AcDbLine
 10
192.755041
 20
91.76816099999999
 30
0.0
 11
193.531498
 21
94.66593899999999
 31
0.0
  0
TEXT
  5
792
330
1E
100
AcDbEntity
  8
1
  6
Continuous
 62
     7
100
AcDbText
 10
192.6357229999999
 20
102.6188209999999
 30
0.0
 40
3.0
  1
206
 50
90.0
 41
0.5
  7
KANJI
100
AcDbText
  0
LINE
  5
793
330
1E
100
AcDbEntity
  8
1
  6
DASHDOT
 62
     7
100
AcDbLine
 10
235.764785
 20
129.687129
 30
0.0
 11
235.764785
 21
107.3745149999999
 31
0.0
  0
LINE
  5
794
330
1E
100
AcDbEntity
  8
1
  6
Continuous
 62
     7
100
AcDbLine
 10
201.226675
 20
91.76816099999999
 30
0.0
 11
201.226675
 21
72.918161
 31
0.0
  0
LINE
  5
795
330
1E
100
AcDbEntity
  8
1
  6
Continuous
 62
     7
100
AcDbLine
 10
203.226675
 20
91.76816099999999
 30
0.0
 11
182.482079
 21
91.76816099999999
 31
0.0
  0
LINE
  5
796
330
1E
100
AcDbEntity
  8
1
  6
Continuous
 62
     7
100
AcDbLine
 10
203.226675
 20
72.918161
 30
0.0
 11
187.5959139999999
 21
72.918161
 31
0.0
  0
LINE
  5
797
330
1E
100
AcDbEntity
  8
1
  6
Continuous
 62
     7
100
AcDbLine
 10
201.226675
 20
91.76816099999999
 30
0.0
 11
202.003132
 21
88.87038399999999
 31
0.0
  0
LINE
  5
798
330
1E
100
AcDbEntity
  8
1
  6
Continuous
 62
     7
100
AcDbLine
 10
201.226675
 20
91.76816099999999
 30
0.0
 11
200.450218
 21
88.87038399999999
 31
0.0
  0
LINE
  5
799
330
1E
100
AcDbEntity
  8
1
  6
Continuous
 62
     7
100
AcDbLine
 10
201.226675
 20
72.918161
 30
0.0
 11
200.450218
 21
75.815939
 31
0.0
  0
LINE
  5
79A
330
1E
100
AcDbEntity
  8
1
  6
Continuous
 62
     7
100
AcDbLine
 10
201.226675
 20
72.918161
 30
0.0
 11
202.003132
 21
75.815939
 31
0.0
  0
TEXT
  5
79B
330
1E
100
AcDbEntity
  8
1
  6
Continuous
 62
     7
100
AcDbText
 10
201.107357
 20
79.82893199999999
 30
0.0
 40
3.0
  1
148
 50
90.0
 41
0.5
  7
KANJI
100
AcDbText
  0
LINE
  5
79C
330
1E
100
AcDbEntity
  8
1
  6
Continuous
 62
     7
100
AcDbLine
 10
201.226675
 20
91.76816099999999
 30
0.0
 11
201.226675
 21
137.658161
 31
0.0
  0
LINE
  5
79D
330
1E
100
AcDbEntity
  8
1
  6
Continuous
 62
     7
100
AcDbLine
 10
203.226675
 20
91.76816099999999
 30
0.0
 11
182.482079
 21
91.76816099999999
 31
0.0
  0
LINE
  5
79E
330
1E
100
AcDbEntity
  8
1
  6
Continuous
 62
     7
100
AcDbLine
 10
203.226675
 20
137.658161
 30
0.0
 11
182.482079
 21
137.658161
 31
0.0
  0
LINE
  5
79F
330
1E
100
AcDbEntity
  8
1
  6
Continuous
 62
     7
100
AcDbLine
 10
201.226675
 20
91.76816099999999
 30
0.0
 11
200.450218
 21
94.66593899999999
 31
0.0
  0
LINE
  5
7A0
330
1E
100
AcDbEntity
  8
1
  6
Continuous
 62
     7
100
AcDbLine
 10
201.226675
 20
91.76816099999999
 30
0.0
 11
202.003132
 21
94.66593899999999
 31
0.0
  0
LINE
  5
7A1
330
1E
100
AcDbEntity
  8
1
  6
Continuous
 62
     7
100
AcDbLine
 10
201.226675
 20
137.658161
 30
0.0
 11
202.003132
 21
134.760384
 31
0.0
  0
LINE
  5
7A2
330
1E
100
AcDbEntity
  8
1
  6
Continuous
 62
     7
100
AcDbLine
 10
201.226675
 20
137.658161
 30
0.0
 11
200.450218
 21
134.760384
 31
0.0
  0
TEXT
  5
7A3
330
1E
100
AcDbEntity
  8
1
  6
Continuous
 62
     7
100
AcDbText
 10
201.107357
 20
110.493861
 30
0.0
 40
3.0
  1
350
 50
90.0
 41
0.5
  7
KANJI
100
AcDbText
  0
LINE
  5
7A4
330
1E
100
AcDbEntity
  8
1
  6
Continuous
 62
     7
100
AcDbLine
 10
242.66928
 20
124.224575
 30
0.0
 11
228.7450419999999
 21
113.541968
 31
0.0
  0
LINE
  5
7A5
330
1E
100
AcDbEntity
  8
1
  6
Continuous
 62
     7
100
AcDbLine
 10
242.66928
 20
124.224575
 30
0.0
 11
240.8427979999999
 21
121.8446659999999
 31
0.0
  0
LINE
  5
7A6
330
1E
100
AcDbEntity
  8
1
  6
Continuous
 62
     7
100
AcDbLine
 10
242.66928
 20
124.224575
 30
0.0
 11
239.8975459999999
 21
123.076755
 31
0.0
  0
LINE
  5
7A7
330
1E
100
AcDbEntity
  8
1
  6
Continuous
 62
     7
100
AcDbLine
 10
228.7450419999999
 20
113.541968
 30
0.0
 11
230.571524
 21
115.9218759999999
 31
0.0
  0
LINE
  5
7A8
330
1E
100
AcDbEntity
  8
1
  6
Continuous
 62
     7
100
AcDbLine
 10
228.7450419999999
 20
113.541968
 30
0.0
 11
231.5167759999999
 21
114.689788
 31
0.0
  0
TEXT
  5
7A9
330
1E
100
AcDbEntity
  8
1
  6
Continuous
 62
     7
100
AcDbText
 10
232.789521
 20
116.525553
 30
0.0
 40
3.0
  1
φ125
 50
37.495241
 41
0.5952380000000001
  7
KANJI
100
AcDbText
  0
LINE
  5
7AA
330
1E
100
AcDbEntity
  8
1
  6
Continuous
 62
     7
100
AcDbLine
 10
211.0647849999999
 20
150.9258729999999
 30
0.0
 11
260.464785
 21
150.9258729999999
 31
0.0
  0
LINE
  5
7AB
330
1E
100
AcDbEntity
  8
1
  6
Continuous
 62
     7
100
AcDbLine
 10
211.0647849999999
 20
152.925873
 30
0.0
 11
211.0647849999999
 21
137.058161
 31
0.0
  0
LINE
  5
7AC
330
1E
100
AcDbEntity
  8
1
  6
Continuous
 62
     7
100
AcDbLine
 10
260.464785
 20
152.925873
 30
0.0
 11
260.464785
 21
137.058161
 31
0.0
  0
LINE
  5
7AD
330
1E
100
AcDbEntity
  8
1
  6
Continuous
 62
     7
100
AcDbLine
 10
211.0647849999999
 20
150.9258729999999
 30
0.0
 11
213.9625629999999
 21
151.70233
 31
0.0
  0
LINE
  5
7AE
330
1E
100
AcDbEntity
  8
1
  6
Continuous
 62
     7
100
AcDbLine
 10
211.0647849999999
 20
150.9258729999999
 30
0.0
 11
213.9625629999999
 21
150.149416
 31
0.0
  0
LINE
  5
7AF
330
1E
100
AcDbEntity
  8
1
  6
Continuous
 62
     7
100
AcDbLine
 10
260.464785
 20
150.9258729999999
 30
0.0
 11
257.567008
 21
150.149416
 31
0.0
  0
LINE
  5
7B0
330
1E
100
AcDbEntity
  8
1
  6
Continuous
 62
     7
100
AcDbLine
 10
260.464785
 20
150.9258729999999
 30
0.0
 11
257.567008
 21
151.70233
 31
0.0
  0
TEXT
  5
7B1
330
1E
100
AcDbEntity
  8
1
  6
Continuous
 62
     7
100
AcDbText
 10
233.340487
 20
151.0451919999999
 30
0.0
 40
3.0
  1
380
 41
0.5
  7
KANJI
100
AcDbText
  0
LINE
  5
7B2
330
1E
100
AcDbEntity
  8
1
  6
Continuous
 62
     7
100
AcDbLine
 10
190.882079
 20
150.9258729999999
 30
0.0
 11
180.4820789999999
 21
150.9258729999999
 31
0.0
  0
LINE
  5
7B3
330
1E
100
AcDbEntity
  8
1
  6
Continuous
 62
     7
100
AcDbLine
 10
190.882079
 20
152.925873
 30
0.0
 11
190.882079
 21
128.933161
 31
0.0
  0
LINE
  5
7B4
330
1E
100
AcDbEntity
  8
1
  6
Continuous
 62
     7
100
AcDbLine
 10
180.4820789999999
 20
152.925873
 30
0.0
 11
180.4820789999999
 21
139.658161
 31
0.0
  0
LINE
  5
7B5
330
1E
100
AcDbEntity
  8
1
  6
Continuous
 62
     7
100
AcDbLine
 10
190.882079
 20
150.9258729999999
 30
0.0
 11
187.9843009999999
 21
150.149416
 31
0.0
  0
LINE
  5
7B6
330
1E
100
AcDbEntity
  8
1
  6
Continuous
 62
     7
100
AcDbLine
 10
190.882079
 20
150.9258729999999
 30
0.0
 11
187.9843009999999
 21
151.70233
 31
0.0
  0
LINE
  5
7B7
330
1E
100
AcDbEntity
  8
1
  6
Continuous
 62
     7
100
AcDbLine
 10
180.4820789999999
 20
150.9258729999999
 30
0.0
 11
183.379856
 21
151.70233
 31
0.0
  0
LINE
  5
7B8
330
1E
100
AcDbEntity
  8
1
  6
Continuous
 62
     7
100
AcDbLine
 10
180.4820789999999
 20
150.9258729999999
 30
0.0
 11
183.379856
 21
150.149416
 31
0.0
  0
TEXT
  5
7B9
330
1E
100
AcDbEntity
  8
1
  6
Continuous
 62
     7
100
AcDbText
 10
183.857276
 20
151.0451919999999
 30
0.0
 40
3.0
  1
80
 41
0.5
  7
KANJI
100
AcDbText
  0
LINE
  5
7BA
330
1E
100
AcDbEntity
  8
1
  6
Continuous
 62
     7
100
AcDbLine
 10
180.4820789999999
 20
150.9258729999999
 30
0.0
 11
102.4820789999999
 21
150.9258729999999
 31
0.0
  0
LINE
  5
7BB
330
1E
100
AcDbEntity
  8
1
  6
Continuous
 62
     7
100
AcDbLine
 10
180.4820789999999
 20
152.925873
 30
0.0
 11
180.4820789999999
 21
139.658161
 31
0.0
  0
LINE
  5
7BC
330
1E
100
AcDbEntity
  8
1
  6
Continuous
 62
     7
100
AcDbLine
 10
102.4820789999999
 20
152.925873
 30
0.0
 11
102.4820789999999
 21
139.658161
 31
0.0
  0
LINE
  5
7BD
330
1E
100
AcDbEntity
  8
1
  6
Continuous
 62
     7
100
AcDbLine
 10
180.4820789999999
 20
150.9258729999999
 30
0.0
 11
177.584301
 21
150.149416
 31
0.0
  0
LINE
  5
7BE
330
1E
100
AcDbEntity
  8
1
  6
Continuous
 62
     7
100
AcDbLine
 10
180.4820789999999
 20
150.9258729999999
 30
0.0
 11
177.584301
 21
151.70233
 31
0.0
  0
LINE
  5
7BF
330
1E
100
AcDbEntity
  8
1
  6
Continuous
 62
     7
100
AcDbLine
 10
102.4820789999999
 20
150.9258729999999
 30
0.0
 11
105.379856
 21
151.70233
 31
0.0
  0
LINE
  5
7C0
330
1E
100
AcDbEntity
  8
1
  6
Continuous
 62
     7
100
AcDbLine
 10
102.4820789999999
 20
150.9258729999999
 30
0.0
 11
105.379856
 21
150.149416
 31
0.0
  0
TEXT
  5
7C1
330
1E
100
AcDbEntity
  8
1
  6
Continuous
 62
     7
100
AcDbText
 10
142.0616129999999
 20
150.9258729999999
 30
0.0
 40
3.0
  1
600
 41
0.5
  7
KANJI
100
AcDbText
  0
TEXT
  5
7C2
330
1E
100
AcDbEntity
  8
1
  6
DASHDOT
 62
     7
100
AcDbText
 10
120.260469
 20
27.908202
 30
0.0
 40
5.0
  1
2007.7.10
 41
0.54878
  7
KANJI
100
AcDbText
  0
TEXT
  5
7C3
330
1E
100
AcDbEntity
  8
1
  6
DASHDOT
 62
     7
100
AcDbText
 10
219.5166169999999
 20
17.885424
 30
0.0
 40
5.0
  1
外観図
 41
0.833333
  7
KANJI
100
AcDbText
  0
TEXT
  5
7C4
330
1E
100
AcDbEntity
  8
1
  6
DASHDOT
 62
     7
100
AcDbText
 10
218.9667379999999
 20
27.611407
 30
0.0
 40
5.0
  1
パークジェットＰＪ-10
 41
0.7608699999999999
  7
KANJI
100
AcDbText
  0
ENDSEC
  0
SECTION
  2
OBJECTS
  0
DICTIONARY
  5
C
330
0
100
AcDbDictionary
281
     1
  3
ACAD_GROUP
350
D
  3
ACAD_PLOTSTYLENAME
350
E
  3
ACAD_MLINESTYLE
350
16
  3
ACAD_PLOTSETTINGS
350
18
  3
ACAD_LAYOUT
350
19
  0
DICTIONARY
  5
D
102
{ACAD_REACTORS
330
C
102
}
330
C
100
AcDbDictionary
281
     1
  0
ACDBDICTIONARYWDFLT
  5
E
102
{ACAD_REACTORS
330
C
102
}
330
C
100
AcDbDictionary
281
     1
  3
Normal
350
F
100
AcDbDictionaryWithDefault
340
F
  0
DICTIONARY
  5
16
102
{ACAD_REACTORS
330
C
102
}
330
C
100
AcDbDictionary
281
     1
  3
Standard
350
17
  0
DICTIONARY
  5
18
102
{ACAD_REACTORS
330
C
102
}
330
C
100
AcDbDictionary
281
     1
  0
DICTIONARY
  5
19
102
{ACAD_REACTORS
330
C
102
}
330
C
100
AcDbDictionary
281
     1
  3
ﾚｲｱｳﾄ1
350
1D
  3
Model
350
21
  0
ACDBPLACEHOLDER
  5
F
102
{ACAD_REACTORS
330
E
102
}
330
E
  0
MLINESTYLE
  5
17
102
{ACAD_REACTORS
330
16
102
}
330
16
100
AcDbMlineStyle
  2
STANDARD
 70
     0
  3

 62
   256
 51
90.0
 52
90.0
 71
     2
 49
0.5
 62
   256
  6
BYLAYER
 49
-0.5
 62
   256
  6
BYLAYER
  0
LAYOUT
  5
1D
102
{ACAD_REACTORS
330
19
102
}
330
19
100
AcDbPlotSettings
  1

  2
なし
  4

  6

 40
0.0
 41
0.0
 42
0.0
 43
0.0
 44
0.0
 45
0.0
 46
0.0
 47
0.0
 48
0.0
 49
0.0
140
0.0
141
0.0
142
1.0
143
1.0
 70
   688
 72
     0
 73
     0
 74
     5
  7

 75
    16
147
1.0
148
0.0
149
0.0
100
AcDbLayout
  1
ﾚｲｱｳﾄ1
 70
     1
 71
     1
 10
0.0
 20
0.0
 11
12.0
 21
9.0
 12
0.0
 22
0.0
 32
0.0
 14
0.0
 24
0.0
 34
0.0
 15
297.0
 25
210.0
 35
0.0
146
0.0
 13
0.0
 23
0.0
 33
0.0
 16
1.0
 26
0.0
 36
0.0
 17
0.0
 27
1.0
 37
0.0
 76
     0
330
1A
  0
LAYOUT
  5
21
102
{ACAD_REACTORS
330
19
102
}
330
19
100
AcDbPlotSettings
  1

  2
なし
  4

  6

 40
0.0
 41
0.0
 42
0.0
 43
0.0
 44
0.0
 45
0.0
 46
0.0
 47
0.0
 48
0.0
 49
0.0
140
0.0
141
0.0
142
1.0
143
1.0
 70
  1712
 72
     0
 73
     0
 74
     0
  7

 75
     0
147
1.0
148
0.0
149
0.0
100
AcDbLayout
  1
Model
 70
     1
 71
     0
 10
0.0
 20
0.0
 11
12.0
 21
9.0
 12
0.0
 22
0.0
 32
0.0
 14
0.0
 24
0.0
 34
0.0
 15
0.0
 25
0.0
 35
0.0
146
0.0
 13
0.0
 23
0.0
 33
0.0
 16
1.0
 26
0.0
 36
0.0
 17
0.0
 27
1.0
 37
0.0
 76
     0
330
1E
  0
ENDSEC
  0
EOF
